Song name
# A B C D E F G H I J K L M N O P Q R S T U V W X Y Z

The Used - Empty With You Acoustic tab

This is my very first tab, I hope you enjoy it as much as I do.

capo on 2


 Intro
 (Em)   (D)   (C)     (C)
|-----------------------------------------|
|------0----------------------0-----------|
|----0---0--------0---0-----0---0---------|
|--2-------0------------------------------|
|---------------3---3---3-----------------|
|-----------------------------------------|

(In the verse you can play like you want, but I prefere this)

      Haven't lost anything except my mind....
E|-------------------------------------------------------------|
B|-----0----0------------0----0----------0---0-------0---0-----|
G|---0----0----0-------0----0---0-------0---0---0---0---0---0--|
D|-2----2----2-------0----0----0-------------------------------|
A|------------------------------------3---3---3---3---3---3----|
E|-------------------------------------------------------------|


(In the refrain it's just chords.)

C                D    Em            D              (change to C fast)-->
  You could be empty, and I can be right here empty with you

C                 D       Em           D
  Or you could be hollow, and I can be right here hollow with you

C                 D             Em          D
  If you want to say goodbye to everything I could say goodbye to

C           D                    Em
  I can be right here empty with you

(In the second verse you play chords)

Em                D               C             C
I havenít wasted a thing except my time (except my time)
Em                           D                   C         C
Forget the treasures weíve burned because weíll be just fine
Em                     D                       C                  C
I try to take off my head sometimes because I canít escape for the life of me
Em                D              C          C
I havenít lost anything except my mind (my mind)

Ref.
You could be empty....


(On this part you play like you do on the verse, Em D C C, but try to "hit" close to the 
note for mor power in the end)

Instead of going underground
Instead of calling them out
Instead of running 'cause your still breathing
Instead of swallowing lies
Instead of buried alive
Let's twist the knife 'til they can't stop bleeding
If you need a confession, I'm guilty
Let's twist the knife 'til they can't stop bleeding
Do you think I feel sorry? Forgive me.
Let's twist the knife 'til they can't stop bleeding
Instead of going underground
Instead of calling them out
Let's twist the knife 'til they can't stop bleeding


Ref.


Have a nice day!/Ha en bra dag!
If you have a question, mail me. emmsan32@hotmail.com
Tap to rate this tab
 
# A B C D E F G H I J K L M N O P Q R S T U V W X Y Z