Song name
# A B C D E F G H I J K L M N O P Q R S T U V W X Y Z

The Used - Blue And Yellow Acoustic tab

This is for all the Used fans who appreciate their older material.  This is not an exact 
of the song; this is an alternate version that I play because it sounds great on 
with an open string sound.

Tuning: DADGAD

Blue and Yellow (Acoustic)

D-----------3-3-3-3-2-2-0-0-0-0-0-0-0-0-0-0----------------------------------|
A-----------3-3-3-3-3-3-3-3-3-3-3-3-3-3-3-3----------------------------------|
G-----------2-2-2-2-2-2-2-2-2-2-2-2-2-2-2-2----------------------------------|
D-----------0-0-0-0-0-0-0-3-3-3-3-3-3-3-3-3----------------------------------|
A-----------0-0-0-0-0-0-0-1-1-1-1-1-1-1-1-1----------------------------------|
D-----------0-0-0-0-0-0-0----------------------------------------------------|

Time it up right.  "And its all in how you mix the two.."


A few measures and lyrics later..

D-----------3-3-3-3-3-3-3-3-3-3-3-3-3-3-3-3----------------------------------|
A-----------3-3-3-3-3-3-3-3-3-3-3-3-3-3-3-3----------------------------------|
G-----------0-0-0-0-0-0-0-0-0-0-0-0-0-0-0-0----------------------------------|
D-----------2-2-2-2-2-2-2-2-2-2-2-2-2-2-2-2----------------------------------|
A-----------3-3-3-3-3-3-3-3-3-3-3-3-3-3-3-3----------------------------------|
D----------------------------------------------------------------------------|

"Well, you're never gonna find it if you're looking for it, won't come your.."

D-----------0-0-0-0-0-0-0-0-0-0-0-0-0-0-0-0----------------------------------|
A-----------3-3-3-3-3-3-3-3-3-3-3-3-3-3-3-3----------------------------------|
G-----------3-3-3-3-3-3-3-3-3-3-3-3-3-3-3-3----------------------------------|
D-----------3-3-3-3-3-3-3-3-3-3-3-3-3-3-3-3----------------------------------|
A-----------x-x-x-x-x-x-x-x-x-x-x-x-x-x-x-x----------------------------------|
D-----------3-3-3-3-3-3-3-3-3-3-3-3-3-3-3-3----------------------------------|

"way, yeah.."

D-----------3-3-3-3-3-3-3-3-3-3-3-3-3-3-3-3----------------------------------|
A-----------3-3-3-3-3-3-3-3-3-3-3-3-3-3-3-3----------------------------------|
G-----------0-0-0-0-0-0-0-0-0-0-0-0-0-0-0-0----------------------------------|
D-----------2-2-2-2-2-2-2-2-2-2-2-2-2-2-2-2----------------------------------|
A-----------3-3-3-3-3-3-3-3-3-3-3-3-3-3-3-3----------------------------------|
D----------------------------------------------------------------------------|

"Well you"ll never find it.."

D-----------0-0-0-0-0-0-0-0--------------------------------------------------|
A-----------3-3-3-3-3-3-3-3--------------------------------------------------|
G-----------3-3-3-3-3-3-3-3--------------------------------------------------|
D-----------3-3-3-3-3-3-3-3--------------------------------------------------|
A-----------x-x-x-x-x-x-x-x- ------------------------------------------------|
D-----------3-3-3-3-3-3-3-3--------------------------------------------------|

"..If you're looking for it.."


D-------0---0---0---0---0---0---0---0---0---0---0---0---0---0---0---0-------|
A-------0---0---0---0---0---0---0---0---0---0---0---0---0---0---0---0-------|
G-------10--10--10--10--10--10--10--10--12--12--12--12--12--12--12--12------|
D-------8---8---8---8---8---8---8---8---10--10--10--10--10--10--12--12------|
A-------8---8---8---8---8---8---8---8---10--10--10--10--10--10--10--10------|
D-------8---8---8---8---8---8---8---8---10--10--10--10--10--10--10--10------|

"Should have done something but I've done it enough by the way.."

D----0-0-0-0-0-0-0-0-0-0-0-0-0-0-0-0--------------------|
A----0-0-0-0-0-0-0-0-0-0-0-0-0-0-0-0--------------------|
G----2-2-2-2-2-2-2-2-5-5-5-5-5-5-5-5--------------------|
D----0-0-0-0-0-0-0-0-3-3-3-3-3-3-3-3--------------------|
A----0-0-0-0-0-0-0-0-3-3-3-3-3-3-3-3--------------------|
D----0-0-0-0-0-0-0-0-3-3-3-3-3-3-3-3--------------------|

"..your hands were shaking rather waste some time with you."


That's all you need to complete the rest of the song.
Rate highly.
Peace.
Tap to rate this tab
 
# A B C D E F G H I J K L M N O P Q R S T U V W X Y Z