Song name
# A B C D E F G H I J K L M N O P Q R S T U V W X Y Z

The Used - Born To Quit tab

Born To Quit (Lead & Rythm)


Lead:
Intro
------------------------------------------------|
------------------------------------------------|
---------------------14-------------------------|
-0-0-2-3-2-0-7-8-7-5-X---0-0-2-3-2-0-7-8-7-11~--|
-0-0-2-3-2-0-7-8-7-5-12--0-0-2-3-2-0-7-8-7-11~--|
-0-0-2-3-2-0-7-8-7-5-----0-0-2-3-2-0-7-8-7-11~--|

verse
-----------------------------------------|
-----------------------------------------|
--10(x16)--9(x16)--12(x16)--10(x16)------|
-----------------------------------------|
-----------------------------------------|
-----------------------------------------|
PM......................................

Chorus
------------------------------------------------------------------------|
------------------------------------------------------------------------|
--10--------14---------19---------15--------14-------12-----------------|
--X--(x16)---X--(x16)---X--(x16)---X--(x4)--X--(x4)--X--(x4)-8-10---8~--|
--8---------12---------17---------13--------12-------10------8-10---8~--|
-------------------------------------------------------------8-10---8~--|

Rpt. Verse - add intro at some point (listen to track)
-----------|
-----------|
-----------|
--8--10----|
--8--10----|
--8--10----|
at the end of verse

Rpt. Chorus

Bridge
----------------------------|
----------------------------|
----------------------------|
--0--8-10--------8----------|  x2
--0--8-10--(x3)--8--(x8)----|
--0--8-10--------8----------|

Rpt. Verse (no palm mute)

-----------|
-----------|
-----------|
--8--10----|  before chorus
--8--10----|
--8--10----|

Rpt. Chorus
Rpt. Intro x2

----------------------------------------------------------------------------

Rythm

Intro
Verse

Chorus
--------------------------------------|
--------------------------------------|
--------------------------------------|
--3-------5--------0--------8-(x16)---|
--3-(x16)-5-(x16)--0-(x16)--8-(x16)---|
--3-------5--------0--------8-(x16)---|

Rpt.Verse - add intro at some point (listen to track)

-----------|
-----------|
-----------|
--8--10----|
--8--10----|
--8--10----|
at the end of verse

Rpt. Chorus
Bridge
Rpt.Verse (no palm mute)

-----------|
-----------|
-----------|
--8-10-----|  before chorus
--8-10-----|
--8-10-----|

Rpt. Chorus
Rpt. Intro x2

Tap to rate this tab
 
# A B C D E F G H I J K L M N O P Q R S T U V W X Y Z