Song name
# A B C D E F G H I J K L M N O P Q R S T U V W X Y Z

The Used - On My Own tab

Tabbed by: Joshua andy
Email:Jdandyxx@hotmail.com

this is how i play On My Own by The Used. i know its not perfect but it sounds 
good to me. good luck!

Tuning: Drop D

e|---------------------------------------------------------------------------|
B|--------------5--------------------5---------------------------5-----------|
G|-------------------6----------6-------------------6-----6-6----------------|
D|--------------------------------------------------------7-7----------7-----|
A|---0----0----------------0-------------------0-----------------------------|
D|---0----0----------------0-------------------0-----------------------------|

e|---0-----------0-----------------------------------------------------------|
B|---5-----------5-----------------------------------------------------------|
G|---6-----------6-----------------------------------------------------------|
D|---7-----------7------------7----------------------------------------------|
A|---4-----------0------------7----------------------------------------------|
D|---4-----------0------------7----------------------------------------------|
(Strumming Pattern not shown)^^^^ but its down [down up down down]x4
Tap to rate this tab
# A B C D E F G H I J K L M N O P Q R S T U V W X Y Z