Song name
# A B C D E F G H I J K L M N O P Q R S T U V W X Y Z

The Used - Earthquake tab

Earthquake (lead & rhythm parts)



Earthquake  (drop d)
Lead
Intro
e--------------------------------------------------|
b--------------------------------------------------|
g-------------9-11--------11-9---------------------|
d--9-11-12-12-------(x6)-------12-12-11-9-(x2)-----|
a--------------------------------------------------|
D--------------------------------------------------|
PM........................................

Verse 1
e-----------------------------------------|
b-----------------------------------------|
g-----------------------------------------|
d--0--------9--------2--------5-----------|
a--0-(20x)--9-(20x)--2-(20x)--5-(20x)-----|
D--0--------9--------2--------5-----------|

e-------------------------------------------------------------------|
b-------------------------------------------------------------------|
g-------------9-11--------11-9--------------------------------------|
d--9-11-12-12-------(x4)-------12-12-11-9-(x4)-9-12-9-12-9-12-(4x)--|
a-------------------------------------------------------------------|
D-------------------------------------------------------------------|
PM...........................................................

Chorus (figure out strumming)
e--------10---------------------------------------------------------------|
b-----------10-12-10----10~-----------------------------------------------|
g--------------------12---------------------------------------------------|
d--0---7---------------------0--7--4--5------0----------------------------|
a--0---7---------------------0--7--4--5------0-(x12)--0-2-3-4b--0-2-3-4b--|
D--0---7---------------------0--7--4--5------0----------------------------|

Verse 2
e----------------------------------------------------------------------|
b----------------------------------------------------------------------|
g-------------9-11--------11-9----------------------------9-11---------|
d--9-11-12-12-------(x4)-------12-12-11-9-(x4)-9-11-12-12------(4x)----|
a----------------------------------------------------------------------|
D----------------------------------------------------------------------|
PM............................................................

e----------------------------------------------------------------------|
b----------------------------------------------------------------------|
g----11-9----------------------------9-11-------11-9-------------------|
d---------12-12-11-9-(x4)-9-11-12-12------(4x)-------12-12-11-9-(4x)---|
a----------------------------------------------------------------------|
D----------------------------------------------------------------------|
PM.............................................................

Rpt. Chorus

Bridge
e----------------------------------------------------------------------|
b----------------------------------------------------------------------|
g----------------------------------------------------------------------|
d---------------------0-0-8-5--0-0-8-5---4------5------4-------5-------|
a---------------------0-0-8-5--0-0-8-5---4-(x6)-5-(x6)-4-(x6)--5-(x6)--|
D--0-0-8-5--(x4)-7s2--0-0-8-5--0-0-8-5---4------5------4-------5-------|

Rpt. Chorus - adjust with the transition from bridge to chorus

"not fine"
e--------------|
b--------------|
g--------------|
d--4--4--4-----| (listen to track for timing!)
a--4--4--4-----|
D--4--4--4-----|
   . . .

Rpt. Chorus (rhythm chords only, no lead parts)

add this at the end of last chorus
e----------------------------------------|
b----------------------------------------|
g--11h12p11h12p11h12p11h12p11------------| (listen to track)
d----------------------------------------| 
a----------------------------------------|
D----------------------------------------|

End
e------------------------------------------------10~--|
b------------------------------------------------10~--|
g-------------9-11--------11-9------------------------|
d--9-11-12-12-------(x8)-------12-12-11-9-(x2)--------|
a-----------------------------------------------------|
D-----------------------------------------------------|
PM........................................................................

----------------------------------------------------------------------
rhythm
Intro
e---------------------------------|
b---------------------------------|
g---------------------------------|
d----0~----0~----555555--777777---| 
a----------------555555--777777---|
D--2----2--------555555--777777---|

verse
e-----------------------------------------|
b-----------------------------------------|
g-----------------------------------------|
d--0--------9--------2--------5-----------|  2x
a--0-(20x)--9-(20x)--2-(20x)--5-(20x)-----|
D--0--------9--------2--------5-----------|

chorus (figure out strumming)
e-------------------|
b-------------------|
g-------------------|  2x
d--0---7---4---5----| 
a--0---7---4---5----|
D--0---7---4---5----|

Rpt. Verse
Rpt. Chorus

Bridge (come in after "murdered our love") listen to track!!
e---------------------------------------------------------|
b---------------------------------------------------------|
g---------------------------------------------------------|
d--------0-0-8-5--0-0-8-5---4------5------4-------5-------|
a--------0-0-8-5--0-0-8-5---4-(x6)-5-(x6)-4-(x6)--5-(x6)--|
D---7s2--0-0-8-5--0-0-8-5---4------5------4-------5-------|

Rpt. Chorus - adjust with the transition from bridge to chorus

"not fine"
e--------------|
b--------------|
g--------------|
d--4--4--4-----| (listen to track for timing!)
a--4--4--4-----|
D--4--4--4-----|
   . . .

Rpt. Chorus
Tap to rate this tab
# A B C D E F G H I J K L M N O P Q R S T U V W X Y Z