Song name
# A B C D E F G H I J K L M N O P Q R S T U V W X Y Z

The Used - The Best Of Me tab

Tab By ThUnderOath
Tuning: Drop C#

Intro(bridge)
D#|---------------------------|
A#|---------------------------|
F#|---------------------------| x4
C#|---------------------------|
G#|-10-8-7h8-7-5h7-5-3h5------|
C#|----------------------0000-|

D#|--------------------------------------------|
A#|--------------------------------------------|
F#|---------9/10-----------------9/10----------|
C#|-0-0-0-0------0-0-0---0-0-0-0-------88-11-11| 
G#|-0-0-0-0-7/8--0-0-0---0-0-0-0-7/8---88-11-11|
C#|-0-0-0-0------0-0-0---0-0-0-0-------88-11-11|

Verse
D#|--------------------------------------------------|
A#|--------------------------------------------------|
F#|--------------------------------------------------|
C#|-8----5----0----(0)------8----5----0----(0)-------|
G#|-8----5----0----(0)------8----5----0----(0)-------|
C#|-8----5----0----(0)------8----5----0----(0)-------|

D#|--------------------------------------------------|
A#|--------------------------------------------------|
F#|--------------------------------------------------|
C#|-8----5----0----(0)------8----5----0--0-----------|
G#|-8----5----0----(0)------8----5----0--0-----------|
C#|-8----5----0----(0)------8----5----0--0-----------|

Chorus
D#|---------------------------------|
A#|---------------------------------|
F#|---------------------------------|
C#|-8-8-8---5-5-5---0-0-0---0-0-0---|
G#|-8-8-8---5-5-5---0-0-0---0-0-0---|
C#|-8-8-8---5-5-5---0-0-0---0-0-0---|

rate and comment please!


************************************

| /   slide up
| \   slide down
| h   hammer-on
| p   pull-off
| ~   vibrato
| +   harmonic
| x   Mute note

************************************
Tap to rate this tab
 
# A B C D E F G H I J K L M N O P Q R S T U V W X Y Z