Song name
# A B C D E F G H I J K L M N O P Q R S T U V W X Y Z

The Used - Empty With You Acoustic tab

Band: The Used
Song: Empty With You Acoustic
Album: Artwork/Pure Volume Recordings
Tuning: Drop D


This tab is what I heard on the recording BTW this is my first tab

  Intro/Verse -

E|---------------------------------| X3 then
B|-----2-------------------2-------|
G|---2---2------2---2--------2-----|
D|-4-------2--0---0---2--2---------|
A|---------------------------------|
D|---------------------------------|

 Then strum and pick a little at these chords..

E|-2-2-2-2-|      X3
B|-2-2-2-2-|
G|-2-2-2-2-|
D|-4-2-0-2-|
A|---------|
D|---------|

Pre-chorus -

E|-2- x6 or more then E|-2-2-4-| x2
B|-2-                 B|-2-2-4-|
G|-2-                 G|-2-2-4-|
D|-2-                 D|-2-2-4-|
A|---                 A|-----4-|
D|---                 D|-------|

  Chorus - (Strum)

E|-2--2--2--2- x3 then E|-2-2-2-| Down Strum the last chord once
B|-2--2--2--2-         B|-2-2-2-|
G|-2--2--2--2-         G|-2-2-2-|
D|-0--2--4--2-         D|-0-2-2-|
A|-0--2--4--2-         A|-0-2-4-|
D|-0--2--4--2-         D|-0-2-4-|

Repeat Intro/Verse with a little bit of the Strumming

Repeat Chorus but instead the ending of the Chorus goes like this

E|-2-2-4-4-4-4-x-x-x-4-4-4-4-4~
B|-2-2-4-4-4-4-x-x-x-4-4-4-4-4~
G|-2-2-4-4-4-4-x-x-x-4-4-4-4-4~
D|-0-2-4-4-4-4-x-x-x-4-4-4-4-4~
A|-0-2-4-4-4-4-x-x-x-4-4-4-4-4~
D|-0-2-4-4-4-4-x-x-x-4-4-4-4-4~

   Bridge -

 Strum and pick a little then palm mute/down strum these chords couple times
E|-2                             E|-2-2-0-2-2-|
B|-2                             B|-2-2-0-2-2-|
G|-2                             G|-2-2-0-2-2-|
D|-4                             D|-4-2-0-4-2-|
A|-4                             A|-4-0-0-4-2-|
D|-4                             D|-4-0-0-4-2-|

  Strum these chords then
E|---2-2-2-2-2-2             E|-2-2-4-| x2
B|-0-2-2-2-2-2-2             B|-2-2-4-|
G|-2-2-2-2-2-2-2             G|-2-2-4-|
D|-3-4-2-0-4-2-0             D|-2-2-4-|
A|-5-4-2-0-4-2-0             A|-----4-|
D|-0-4-2-0-4-2-0             D|-------|

Repeat Chorus and instead of doing the down strum do this again

E|-2-2-4-4-4-4-x-x-x-4-4-4-4~
B|-2-2-4-4-4-4-x-x-x-4-4-4-4~
G|-2-2-4-4-4-4-x-x-x-4-4-4-4~
D|-0-2-4-4-4-4-x-x-x-4-4-4-4~
A|-0-2-4-4-4-4-x-x-x-4-4-4-4~
D|-0-2-4-4-4-4-x-x-x-4-4-4-4~


And that's it..its probably a bit messy but im sure you can figure it out..
please comment and rate...if any questions email MortalEnemy100@Hotmail.com

- Tyler Davis A.K.A The Ripper
Tap to rate this tab
 
# A B C D E F G H I J K L M N O P Q R S T U V W X Y Z