Song name
# A B C D E F G H I J K L M N O P Q R S T U V W X Y Z

The Used - The Bird And The Worm tab

tabbed by: kn!!led
standard tuning

this song can be played in standard tuning or drop D, but im tabbin it out for standard.
and theres actually supposed to be like 2 guitars and violens and junk but im tabbin it
out so u can play it all on 1 guitar and still have it sound pretty good to play by yourself


e---------------------------|
b---------------------------|
g---------------------------|
d----4-4---4-4---3-3---3-3--| do this thru the intro and the first verse
a---0-0-0-0-0-0-0-0-0-0-0-0-|
E--2-----2-----1-----1------|

chorus

e---------------------------------------------|
b---------------------------------------------|
g----------777777777--------------------------|
d-444444444777777777777777777333333333--------|
a-444444444555555555777777777333333333--------|
E-222222222---------555555555111111111--------|
 "all......turns....holding..die"
terrified..whats....save.....crawls"

right after chorus
e--------------------------------------------|
b--------------------------------------------|
g-----2--------------------------------------|
d-4---2---6----------------------------------|
a-4---0---6----------------------------------|
E-2-------4----------------------------------|

e-------------------------|
b-------------------------|
g-------------------------|
d--4-4---4-4---3-3---3-3--|
a-0-0-0-0-0-0-0-0-0-0-0-0-|
E2-----2-----1-----1------|

verse 2

e--------------------------------------------------------|
b--------------------------------------------------------|
g--------------------------------------------------------|
d--444444444444444---------------------------------------|
a--444444444444444-stop----------------------------------|
E--222222222222222---------------------------------------|
  "out of his mind the weight pushes him whispering

e--------------------------------------------------------|
b--------------------------------------------------------|
g--------------------------------------------------------|
d--444444444444444---------------------------------------|
a--444444444444444-stop----------------------------------|
E--222222222222222---------------------------------------|
   must of been   out of his mind

e--------------------------------------------------------|
b--------------------------------------------------------|
g--------------------------------------------------------|
d--444444444444444---------------------------------------|
a--444444444444444-stop----------------------------------|
E--222222222222222---------------------------------------|
   midday delusions are pushing this out of his

e------------------------------------------------

b------------------------------------------------|
g------------------------------------------------|
d--44444444444444444444443333333333333333333333--|
a--44444444444444444444443333333333333333333333--|
E--22222222222222222222221111111111111111111111--|
   head maybe out of his mind ,out of his mind


chorus

e---------------------------------------------|
b---------------------------------------------|
g----------777777777--------------------------|
d-444444444777777777777777777333333333--------|
a-444444444555555555777777777333333333--------|
E-222222222---------555555555111111111--------|
 "all......turns....holding..die"
terrified..whats....save.....crawls"

post chorus

e---------------------------------------------------------|
b---------------------------------------------------------|
g---2-------------2-------------2-------------------------|
d-4-2-66666666--4-2-66666666--4-2-66666666666666666666664-|
a-4-0-66666666--4-0-66666666--4-0-66666666666666666666664-|
E-2---45454545--2---45454545--2---45454545454545454545452-|

bridge part 1
e-----------------------------------------------------------|
b--------------------------------------------------14-------|
g--14---------------13-----------------14----14-16----13-14-|
d-----------------------------------------------------------|
a-----------------------------------------------------------|
E-----------------------------------------------------------|

e-----------------------------------------------------------|
b--------------------------------------------------14-------|
g--14---------------13-----------------14----14-16----13-14-|
d-----------------------------------------------------------|
a-----------------------------------------------------------|
E-----------------------------------------------------------|

bridge part2

e-----------------------------------------------------------|
b-----------------------------------------------------------|
g-----2---------------------------2-------------------------|
d-4---2--666-6-666-6---4----------2------------666-6-666-6--|
a-4---0--666-6-666-6---4----------0------------666-6-666-6--|
E-2------454-4-454-4---2-----------------------454-4-454-4--|
  all he knows       if he cant relieve it it grows

e--------------------------------------------|
b--------------------------------------------|
g--------2-----------------------------------|
d----4---2--666-6-666-6----666-6-666-6-666-6-|
a----4---0--666-6-666-6----666-6-666-6-666-6-|
E----2------454-4-454-4----454-4-454-4-454-4-|
 and so  it goes        he crawls like a worm

  "CRAWLS LIKE A WORM FROM THE BIRB!!!"


bridge part 3

e-----------------------------------------------------------|
b-----------------------------------------------------------|
g-----2-----------------------2-----------------------------|
d-4---2--6666666666666666664--2--6666666666666666664--------|
a-4---0--6666666666666666664--0--6666666666666666664--------|
E-2------4545454545454545452-----4545454545454545452--------|
      HE CRAWLS LIKE A WORM!! HE CRAWLS LIKE A WORM!!

e--------------------------------------------------|
b--------------------------------------------------|
g----2---------------------------------------------|
d----2--66666666666666666666666666666666664--------|
a----0--66666666666666666666666666666666664--------|
E-------45454545454545454545454545454545452--------|
     HE CRAWLS LIKE A WORM!! CRAWLS LIKE A!!

BRIDGE PART 4

e-------------------------------------------------------------------------|
b----10-10-------10-10-----9--9--------9--9--------10-10-------10-10---9--|
g----11-11-------11-11-----10-10-------10-10-------11-11-------11-11---10-|
d----------------------------------------------------------------------0--|
a--10---------10--------9-----------9-----------10----------10---------9--|
E-------------------------------------------------------------------------|
 "out  of his mind the way pushes him whispering musta been outta his miiiiiiiind"


chorus

e---------------------------------------------|
b---------------------------------------------|
g----------777777777--------------------------|
d-444444444777777777777777777333333333--------|
a-444444444555555555777777777333333333--------|
E-222222222---------555555555111111111--------|
 "all......turns....holding..die"
terrified..whats....save.....crawls"

thn it does the chorus again but changes a lil were the

words and music hit each other.

post chorus

e------------------------------------------------------------|
b------------------------------------------------------------|
g---2-------------2------------------------------------------|
d-4-2-66666666--4-2-66666666--4-4-4-4-4-666666666666666666-4-|
a-4-0-66666666--4-0-66666666--4-4-4-4-4-666666666666666666-4-|
E-2---45454545--2---45454545--2-2-2-2-2-454545454545454545-2-|

thn do the intro for like 2 bars


and thats it. remember this may sound a lil different but thats cuz ur doin everythn
on 1 guitar thats supposed to be played on a bunch of other thns so this is so u can
play the song by urself and have it sound good...... and it does. lol....      enjoy!!
Tap to rate this tab
# A B C D E F G H I J K L M N O P Q R S T U V W X Y Z