Song name
# A B C D E F G H I J K L M N O P Q R S T U V W X Y Z

The Used - The Taste Of Ink tab

The Taste of Ink (Lead & Rhythm)

Rhythm

Verse
e-------------------------------------------------------|
b-------------------------------------------------------|
g-------------------------------------------------------|
d----9-9-9-9-12-12-12-12-7-7-7-7-14-14-14-14------------| 4x
a----7-7-7-7-10-10-10-10-5-5-5-5-12-12-12-12------------|
D----7-7-7-7-10-10-10-10-5-5-5-5-12-12-12-12------------|

chorus: figure out strumming
e----------------------------------|
b----------------------------------|
g----------------------------------| 2x
d----5-0-7-7h9-1010101010101010----|
a----5-0-7-7h9-1010101010101010----|
D----5-0-7-7h9-1010101010101010----|


Rpt. Verse 2x
Rpt. Chorus 2x

Bridge
e---------------------------------------------|
b---------------------------------------------|
g---------------------------------------------|
d--12s14--14--14s12--12--12s17--17--17s16-----|  3x
a---X--X---X--X--X----X---X-X----X---X--X-----|
D--10s12--12--12s10--10--10s15--15--15s14-----|

Rpt. Verse 2x
add this at some point
e--------------------|
b--------------------|
g--------------------|
d--5555555555555-----|
a--5555555555555-----|
D--5555555555555-----|
   .............

Rpt. Chorus 2x
Rpt. Verse until end
---------------------------------------------------------------------------

Lead
verse 4x
chorus 2x
Rpt. verse 1x then
e---------------------------------------------------------------------|
b---------------------------------------------------------------------|
g-----11-12-11---------11-12-12~-----11-12-11-----14------12----------|
d--12----------14---12------------12----------14---X-(8x)--X--(8x)----|
a-------------------------------------------------12------10----------|
D---------------------------------------------------------------------|

Rpt. Chorus 2x

savor every moment of this..
e------------------------------------|
b------------------------------------|
g------------------------------------|
d--12--------------------------------|
a---X---(figure out strumming)-------|
D--10--------------------------------|

Bridge
e-----------------------------------------|
b-----------------------------------------|
g---7---7-7--7-------0----------0----0----|
d---9---9-9--9-----9---9-----12---12------| x3
a--10--10-9--9--12--------15--------------|
D-----------------------------------------|

Rpt. Verse (lead part only)

add this at some point
e--------------------|
b--------------------|
g--------------------|
d--5555555555555-----|
a--5555555555555-----|
D--5555555555555-----|
   .............

Rpt. Chorus 2x
Rpt. Verse (lead part only) until end
Tap to rate this tab
# A B C D E F G H I J K L M N O P Q R S T U V W X Y Z