Song name
# A B C D E F G H I J K L M N O P Q R S T U V W X Y Z

The Used - Sound Effects And Overdramatic tab

Sound Effects And Overdramatic   (Lead & Rhytm parts)


Rhythm

Intro
e-------------|
b-------------|
g-------------|
d---0---------|
a---0--(x?)---|
D---0---------|
  PALM MUTE

Chorus
e----------------------------------------------|
b---------77---------------33------------------|
g---------77---------------66------------------|
d--4-4-4------------0-0-0-------------4~-------|
a--4-4-4------(x4)--0-0-0------(x4)---4~-------|
D--4-4-4------------0-0-0-------------4~-------|

Verse
e----------------------------------------------------------|
b----------------------------------------------------------|
g----------------------------------------------------------|
d----------------------------------------------------------| x2
a----------------------------------------------------------|
D-444444444444--222222222222--000000000000--222222222222---|

Rpt. Chorus
Rpt. Verse
Rpt. Chorus x2

Bridge (rhythm only)
e------------------------------------------------------------|
b------------------------------------------------------------|
g------------------------------------------------------------|
d------------------------------------------------------------| x2
a-----555----55-----444----44-----222----22------444----44---|
D-222-----22----222-----22----000-----00-----222-----22------|
PM.................................................................

e---------------------|
b---------------------|
g---------------------|
d--4~---9~--4-4-4-----|
a--4~---9~--4-4-4-----|
D--4~---9~--4-4-4-----|
            . . .

Rpt. Chorus

play around with this chord in this part
e--------|
b--------|
g--------|
d----4---|
a----4---|
D----4---|

Rpt. Chorus x2 (remove some parts - listen to track)

then
e------------------------------------------|
b------------------------------------------|
g------------------------------------------|
d--4-4-4--44--4-4-4--44--4-4-4-------------|
a--4-4-4--44--4-4-4--44--4-4-4-------------|
D--4-4-4--44--4-4-4--44--4-4-4-------------|
          ..         ..

--------------------------------------------------------------------------

Lead

*same as rhythm, only verses differ and added solo

Verse 1
e--5-----5------2-----2------2-----2------2---4--2---2-----|
b----5-0---5-0----2-0---2-0----0-2---0-2----2------2--0----|
g----------------------------------------------------------|
d----------------------------------------------------------|
a----------------------------------------------------------|
D----------------------------------------------------------|

e--------------------------------------------------------------------------|
b--------------------------------------------------------------------------|
g------6---6------6---6------4---4------4---2------2---2----2---2----4-4~--|
d--------4----------4----------2----------2----------0--------0-------2----|
a--------------------------------------------------------------------------|
D--444--------444--------222--------222--------000-------000------222------|

Verse 2
e--5-----5------2-----2------2-----2------2---4--2---2-----|
b----5-0---5-0----2-0---2-0----0-2---0-2----2------2--0----|
g----------------------------------------------------------|
d----------------------------------------------------------|
a----------------------------------------------------------|
D----------------------------------------------------------|

e---------------------------------------------------------------|
b-----9--------9--------9-------9-------10------10-------9------|
g---9---9----9---9----9---9---9---9---9----9---9---9---9---9~---|
d-6--------6--------7-------7-------0--------0-------7----------|
a---------------------------------------------------------------|
D---------------------------------------------------------------|

Solo
e-----------------------------------------|
b--19(x?)--17(x?)--15(x?)--14(x?)---------|
g-----------------------------------------| x2
d-----------------------------------------|
a-----------------------------------------|
D-----------------------------------------|
Tap to rate this tab
 
# A B C D E F G H I J K L M N O P Q R S T U V W X Y Z