Song name
# A B C D E F G H I J K L M N O P Q R S T U V W X Y Z

The Used - The Best Of Me tab

-------------------------------------------------------------------------------
			     The Best of Me - The Used
-------------------------------------------------------------------------------

Tabbed by: Cord

Email: mbiggelsworth@hotmail.com

This is my first tab. This is a really awesome song and pretty easy to play!

Tuning:1/2 step down and drop the E string.

Inro:
e|---------------------------------------------------------------------------|
B|---------------------------------------------------------------------------|
G|--------------------------------------------------------X4-----------------|
D|---------------------------------------------------------------------------|
A|---------------------------------------------------------------------------|
E|17-0-15-0-14-0-15-0-14-0-12-0-14-0-12-0-9-0-12-0-0-0-0---------------------|


Pre Chours:
e|---------------------------------------------------------------------------|
B|---------------------------------------------------------------------------|
G|--------9------------------9------------------------X2---------------------|
D|0-0-0-0-12-0-0-0-0-0-0-0-0-12-7-7-7-7-11-11-11-11--------------------------|
A|0-0-0-0----0-0-0-0-0-0-0-0----7-7-7-7-11-11-11-11--------------------------|
E|0-0-0-0----0-0-0-0-0-0-0-0----7-7-7-7-11-11-11-11--------------------------|


Chours:
e|---------------------------------------------------------------------------|
B|---------------------------------------------------------------------------|
G|----------------------------------X2---------------------------------------|
D|7-7-7~--5-5-5~--0-0-0~--0-0-0~---------------------------------------------|
A|7-7-7~--5-5-5~--0-0-0~--0-0-0~---------------------------------------------|
E|7-7-7~--5-5-5~--0-0-0~--0-0-0~---------------------------------------------|

thats basically it...

************************************

| /   slide up
| \   slide down
| h   hammer-on
| p   pull-off
| ~   vibrato
| +   harmonic
| x   Mute note
| b   Bend
| pb  Pre-bend
| br  Bend release
| pbr Pre-bend release
| brb Bend release bend

************************************
Tap to rate this tab
# A B C D E F G H I J K L M N O P Q R S T U V W X Y Z