Song name
# A B C D E F G H I J K L M N O P Q R S T U V W X Y Z

The Used - I Caught Fire In Your Eyes tab

I Caught Fire (In Your Eyes)  (Lead & Rhythm)

Lead
Intro/Riff 1
e|-9p0-----------7p0-------------0-|
B|-----9p0-7h9p0-----9p0-7h9p7p0---|
G|---------------------------------|
D|---------------------------------| 7x
A|---------------------------------|
D|---------------------------------|

Verse 1
e|-9~--9----7------9----7--------------------------------------|
B|-9~----9~---9~-----9~---9~-----------------------------------|
G|-9~-------------------------6(18x)--9(18x)-------------------|
D|--------------------------------------------2-2-22--2-2-22---|
A|--------------------------------------------2-2-22--2-2-22---|
D|--------------------------------------------2-2-22--2-2-22---|
                           PM-------------------------------

e|-9p0-----------7p0------------|
B|-----9p0-7h9p0-----9p0-7h9----|
G|------------------------------|
D|------------------------------|
A|------------------------------|
D|------------------------------|

Chorus - figure out strumming
e|-------------------|
B|-------------------|
G|--9--------6--4----|
D|--9--9--7--6--4----| 2x
A|--7--9--7--4--2----|
D|-----9--7----------|

Rpt. Intro 2x

Verse 2
e|--9~--9~---12~-----------------------------------------------|
B|--9~--10~--9~------------------------------------------------|
G|--9~--9~---9~------------------------------------------------|
D|----------------6(18x)--9(18x)--2-2-22--2-2-22-----6--7--3---|
A|--------------------------------2-2-22--2-2-22-----6--7--3---|
D|--------------------------------2-2-22--2-2-22-----6--7--3---|
                PM...............................

Rpt. Chorus 2x
add this at some point
riff 2
e|--12p0-9p0---------------------------0--|
B|-----------10h12p10-10p0-9p0-7h9p7p0----|
G|----------------------------------------|
D|----------------------------------------| 2x
A|----------------------------------------|
D|----------------------------------------|

Bridge
e|--------------------------------------------|
B|----------------2-2-2--2--------------------|
G|--6-6-6-6--6-4--2-2-2--2-4----------4-------|
D|--6-6-6-6--6-4--2-2-2--2-4--2-------4-(8x)--| 2x
A|--4-4-4-4--4-2-----------2--2-(8x)--2-------|
D|----------------------------2---------------|

Rpt. Riff 2 2x
Rpt. Chorus until end
add riff 2 at some point (listen to track)

End
e|----12~-------|
B|--------------|
G|--------------|
D|--------------|
A|--------------|
D|--------------|

-------------------------------------------------------------------------

Rhythm
Intro
e|--------------------------------|
B|--------------------------------|
G|--------------------------------|
D|--11-11-11-11-11-9-9-9-9-9------|
A|--11-11-11-11-11-9-9-9-9-9------|
D|--11-11-11-11-11-9-9-9-9-9------|

Chorus - figure out strumming
e|---------------------|
B|---------------------|
G|---------------------|
D|--2--9--7--11--9-----|
A|--2--9--7--11--9-----|
D|--2--9--7--11--9-----|

Verse 1
e|------------------------------------------|
B|------------------------------------------|
G|------------------------------------------|
D|--2~-------------------2-2--2-2--2-2--2-2-|
A|--2~-------------------2-2--2-2--2-2--2-2-|
D|--2~-------------------2-2--2-2--2-2--2-2-|
                         . .  . .  . .  . .

Rpt. Chorus 2x

Verse 2
e|--9~--9~--12~-------------------------------------|
B|--9~--10~-9~--------------------------------------|
G|--9~--9~--9~--------------------------------------|
D|------------------------2-2-22--2-2-22---6--7--3--|
A|------------------------2-2-22--2-2-22---6--7--3--|
D|------------------------2-2-22--2-2-22---6--7--3--|
                          . . ..  . . ..

Rpt. Chorus 2x
Do Bridge (from lead)
Rpt. Chorus until end - add palm mutes to some notes (listen to track)
Tap to rate this tab
 
# A B C D E F G H I J K L M N O P Q R S T U V W X Y Z