The Used - Empty With You Acoustic tab

love this songgg* hope u like it
tuning:DADGBe
(i know these arent the real chords names but here are the chords used)
Chords: D-2   E-2   F#m-2   *D-x   *E-x   *F#m-x
          2     2       2      x      x        x
          2     2       2      7      9        11
          0     2       4      7      9        11
          0     2       4      5      7        9
          0     2       4      x      x        x

intro: 
|--------------------------|\\\
|------2---------------2---||\\\
|----2---2------2-2---2-2--||\\\\ x2
|--4-------2---0-0-0-------||////
|--------------------------||///
|--------------------------|///

   havent.....mind...
|--------------------------|
|------2---------------2---|
|----2---2------2-2---2-2--|
|--4-------2---0-0-0-------|
|--------------------------|
|--------------------------|

   expect.....will...
|--------------------------|
|------2---------------2---|
|----2---2------2-2---2-2--|
|--4-------2---0-0-0-------|
|--------------------------|
|--------------------------|

 I try........cant...
|--------------------------|
|------2---------------2---|
|----2---2------2-2---2-2--|
|--4-------2---0-0-0-------|
|--------------------------|
|--------------------------|

   havent.....mind...
|--------------------------|
|------2---------------2---|
|----2---2------2-2---2-2--|
|--4-------2---0-0-0-------|
|--------------------------|
|--------------------------|

'Palm mute "D" chord for 4 beats (8 times) leading into the chorus'

chorus:

D               E
    you could be empty
F#m                 E                D
    and i could be right there empty with you
                  E
    you could be hallow
F#m                 E                 D
    and i could be right there hallow with you
                 E
    if you wanna say gooodbye
       F#m            E                D
    to everything, i could say goodbye too
                    E(strum once)   (start fingerpicking verse immediately)
    and i could be right there empty with you
 

verse 2: 
do this one time, guitar only...
|--------------------------|
|------2---------------2---|
|----2---2------2-2---2-2--|
|--4-------2---0-0-0-------|
|--------------------------|
|--------------------------|

   havent.....time
|--------------------------|
|------2---------------2---|
|----2---2------2-2---2-2--|
|--4-------2---0-0-0-------|
|--------------------------|
|--------------------------|

   Forget......be...
|--------------------------|
|------2---------------2---|
|----2---2------2-2---2-2--|
|--4-------2---0-0-0-------|
|--------------------------|
|--------------------------|

  I try.......cant...
|--------------------------|
|------2---------------2---|
|----2---2------2-2---2-2--|
|--4-------2---0-0-0-------|
|--------------------------|
|--------------------------|

  Havent......mind
|--------------------------|
|------2---------------2---|
|----2---2------2-2---2-2--|
|--4-------2---0-0-0-------|
|--------------------------|
|--------------------------|


'Palm mute "D" chord for 4 beats (8 times) leading into the chorus'

chorus:

D               E
    you could be empty
F#m                 E                D
    and i could be right there empty with you
                  E
    you could be hallow
F#m                 E                 D
    and i could be right there hallow with you
                 E
    if you wanna say gooodbye
       F#m            E                D
    to everything, i could say goodbye too
                    E               (staight into bridge)
    and i could be right there empty with you


bridge:

(NOTE! these arent the same chords as the chorus!)

*F#m    *E     *D     *E   (x2)

*F#m                    *E
   Instead of going underground
                        *D
Instead of calling them out
                          *E
Instead of running 'cause your still breathing
*F#m                     *E
   Instead of swallowing lies
                  *D
Instead of buried alive
                                *E
Let's twist the knife 'til they can't stop bleeding
      *F#m              *E           
If you need a confession, I'm guilty
*D                               *E                    
 Let's twist the knife 'til they can't stop bleeding
      *F#m               *E
Do you think I feel sorry? Forgive me.
*D                               *E
 Let's twist the knife 'til they can't stop bleeding
F#m                    *E
 Instead of going underground
                        *D
Instead of calling them out
                                *E
Let's twist the knife 'til they can't stop bleeding



'Palm mute "D" chord for 4 beats (8 times) leading into the chorus'

chorus:

D               E
    you could be empty
F#m                 E                D
    and i could be right there empty with you
                  E
    you could be hallow
F#m                 E                 D
    and i could be right there hallow with you
                 E
    if you wanna say gooodbye
       F#m            E                D
    to everything, i could say goodbye too
                    E                D
    and i could be right there empty with you
                 E
    you could be empty
F#m                 E                D
    and i could be right there empty with you
                  E
    you could be hallow
F#m                 E                 D
    and i could be right there hallow with you
                 E
    if you wanna say gooodbye
       F#m            E                D
    to everything, i could say goodbye too
                    E                F#m~let ring.....
    and i could be right there empty with you
Tap to rate this tab
 
# A B C D E F G H I J K L M N O P Q R S T U V W X Y Z