Song name
# A B C D E F G H I J K L M N O P Q R S T U V W X Y Z

The Used - Dans Alphabet Song tab

|---------------------------------|
|---------------------------------|
|---------------------------------|
|---------------------------------|
|---------0-0-2-4---------0-2-4-5-|
|-0-0-2-4---------0-0-2-4---------|

|---------------------------------|
|---------------------------------|
|---------------------------------|
|---------0-0-2-4---------0-0-2-4-|
|-0-0-2-4---------0-0-2-4---------|
|---------------------------------|

|-----------------------------0---|
|-----------------------------0---|
|-----------------------------3---|
|-----------------------------2---|
|---------0-0-2-4-------------2---|
|-0-0-2-4---------0-0-2-4-0-0-0---|

Chorus
measure of 8th notes each chord
  E  Emaj7 F#m   A    E  Emaj7  E
|-0----0----2----5----0----0----0----|
|-0----0----2----5----0----0----0----|
|-3----4----2----6----3----4----3----|half measures for last 2
|-2----1----4----7----2----1----3----|
|-2----2----4----7----2----2----2----|
|-0----0----2----5----0----0----0----|

Verse 2

|---------------------------------|
|---------------------------------|
|---------------------------------|
|---------------------------------|
|---------0-0-4-5---------0-0-4-5-|
|-0-0-2-4---------0-0-2-4---------|

then chorus a few times
Tap to rate this tab
 
# A B C D E F G H I J K L M N O P Q R S T U V W X Y Z