The Used - Kissing You Goodbye tab

Tabbed by: Patrick Villeneuve
Email:

Tuning: CAPO 1


Chords:
  F#        A         C#m         E        B
e-2	    0          0          0        0  
b-2     0          5          0        0
g-3	    2          6          1        4
D-4	    2          6          2        4
A-4	    0          4          2        2
E-2	    x          x          0        x


Main riff
e|------0----2---0----------------------------------------|
B|----0---0----0---0--------5-------4---5-----------------|
G|-1----------------------------6-------------------------|
D|--------------------X2------6---6---6---6---X2----------|
A|--------------------------4-----------------------------|
E|-0------------------------------------------------------|

Verse
Main riff
Cut yourself in conversation
Cut the line to make me feel alive
'Cuz you know I'm not alive

Main riff
And leave me with your complications
Take your life, you feel like taking mine
                                   F#
Meeting god we stand in line, not alone

CHORUS
A          C#m          E     
Nowhere to go, I'm not leaving
     B                             A
Not going, I'm not kissing you goodbye
      C#m         E   
On my own, I'm nothing
       B                           Main riff
Just bleeding, I'm not kissing you goodbye

Main riff
Trust to take the right to leave me
Waiting under dark clouds for the rain
Praying lightning strikes a change
As history gets lost and
As I took that final breath I felt alive
                                     F# 
Meeting god to stand in line, all alone

A          C#m              E
Nowhere to go, I'm not leaving
       B                          A
Not going, I'm not kissing you goodbye
       C#m           E
On my own, I'm nothing
          B                          SOLO
Just bleeding, I'm not kissing you goodbye

SOLO (WITH THE CAPO ON 1st FRET)
e|-------------------------------------------------------------------|
B|------------------------------------------------7-9-9-7-7----------|
G|----------------------------------------------------------6---X2---|
D|-4-6--6-4--4-------------------------------------------------------|
A|-------------4---X2---4-7-6-2--------------------------------------|
E|-------------------------------2-4-2-5--4-2-0----------------------|

e|-----------------------------------------9--------------------------------|
B|--------------------------------------------------------------------------|
G|--6-9-8--8-9-11--8-9-11-13-11-14-13-11-9----------------------------------|
D|--------------------------------------------------------------------------|
A|--------------------------------------------------------------------------|
E|--------------------------------------------------------------------------|

BRIDGE
C#m                              B
Don't let me go, don't say good bye
 B
'Cuz you know that I'm not alive
A                               F#
Don't let me go, don't say good bye
                      C#m
Don't let this love die
C#m                              B
Don't let me go, don't say good bye
(Cut yourself in conversation
Cut the line to make me feel alive)
 B                       
'Cuz you know that I'm not alive
 A                               F#
Don't let me go, don't say good bye
(And leave me with your complications
Take your life, you feel like taking mine)
 F#
Don't let this love die

CHORUS
A          C#m              E
Nowhere to go, I'm not leaving
        B                           A                    
Not going, I'm not kissing you goodbye
       C#m          E
On my own, I'm nothing
        B                              E
Just bleeding, I'm not kissing you goodbye
E 
I'm not kissing you goodbye
E
I'm not kissing you goodbye
Tap to rate this tab
 
# A B C D E F G H I J K L M N O P Q R S T U V W X Y Z