The Used - Something Safe tab

Something Safe by the Used
From a demo around the time of Artwork.
billythekiddd6@yahoo.com

Intro/Verse:
-----7---6--------------------|
------------------------------|
-6---6---6---6----------------|
-x---x---x---x----------------|
-4---4---4---4----------------|
------------------------------|
about 10 times each, with up and down strumming.
Verse is the same, only play with the 7's and 6s on the E string timing is a 
little different with them.


Chorus:
--------------------------------------------------------------------------|
--------------------------------------------------------------------------|
--------------------------------------------------------------------------|
-9-9-999--9-9-9-9-9--11-11-11-11-11-11-13-13--131313-13-13-13-13-13-------|
-7-7-777--7-7-7-7-7--9-9--999-9-9-9-9-9-11-11-111111-11-11-11-11-11-------|
-----.....-------------------....------------------..........-------------|


------------------------------------------------|
------------------------------------------------|
------------------------------------------------|
-14-14--141414-14-14-14-14-14-14----------------|
-12-12--121212-12-12-12-12-12-12----------------|
---------.........------------------------------|


Bridge:
--------------------------------------------------|
--------------------------------------------------|
--------------------------------------------------|
--------------------------------------------------|
-/7-p0h6p0h4h6p4p0--/7-p0h6p0h4h6/7---------------|
--------------------------------------------------|


1st Break       2nd break (Instead of second part of riff)
--------|------------------------------|
--------|------------------------------|
-3*-----|------------------------------|
--------|-9-9-9-9-9--2~--1~--0-0-0-0---|
--------|-9-9-9-9-9--2~--1~--0-0-0-0---|
--------|-9-9-9-9-9/-2~--1~--0-0-0-0---|
Go back to the bridge riff after 1st and 2nd break,


3rd Break
------------------------------------------------|
------------------------------------------------|
------------------------------------------------|
-9999--11-9999--11--5-000--5-000--5-000--5---0--|
-9999--11-9999--11--5-000--5-000--5-000--5---0--|
-9999-/11-9999-/11--5-000--5-000--5-000--5~--0--|
and back to verse riff after this 3rd break.


Then play the chorus, then bridge riff is the outro. Enjoy!
Tap to rate this tab
 
# A B C D E F G H I J K L M N O P Q R S T U V W X Y Z