The Used - Greener With The Scenery tab

Artist:    The Used
Song:      Greener with the Scenery
Tabbed by: neuroxik
Email:     neuroxik [-at] gmail [dot-] com

Tuning:    Drop D (DADGBe)
Time Signature: 3/4

This is a complete guitar version of the Guitar Pro file I uploaded, for those
of you who prefer ASCII or do not have Guitar Pro.

NOTES:
------------------------------------------------------------------------------
1. At first, Riff A (and its simile repeats) is nasty to grasp, the picking
hand pattern is not quite usual, but once you get a hang of it it's fairly easy.
2. Although I tabbed every single note, most of the song (intro, verses, 
Interlude Pt.II) is basically Riff A repeated, so you don't HAVE to play the
slight variations, which are not NOTE variations but PICKING variants. 

CHORDS USED:
------------------------------------------------------------------------------
	   (from big string (D) to small string (e), left to right)
Asus4      x 0 7 7 5 0 
Amadd9     x 0 7 5 0 x
F          x 8 7 5 x x
Fadd9      x 8 7 0 0 x
F5         3 3 3 5(6)x (F5 used in "Bridge")
C          x 3 5 5 5 x
G6         5 5 0 0 0 0 
F5         3 3 3 5 x x (F5 used in Chorus)
D5         0 5 x 7 x x 
E5/D       0 7 x 9 x x 
A#5        8 8 8 9 10 x


INTRO
   Elec. guitar, clean, alternate picking (with pick)
   Riff A                                                end Riff A
   Asus4             Amadd9          F               Fadd9         
e|----------------|---------------|---------------|---------------||
B|------5----5----|------0---0----|---------------|---------------||
G|-------------7--|----5-------5--|------5---5----|------0---0----||
D|----7---7-------|----7---7------|----7-------7--|----7-------7--||
A|--0-------------|--0------------|--8-----8------|--8-----8------||
D|----------------|---------------|---------------|---------------||
    (Let ring)

   Asus4         Amadd9        F             Fadd9         Asus4
e|-------------|-------------|-------------|-------------|-------------------|
B|-----5---5---|-----0---0---|-------------|-------------|-----5----5--------|
G|-----------7-|---5-------5-|-----5---5---|-----0---0---|------------7------|
D|---7---------|-7-----7-----|---7-------7-|---7-------7-|---7--(7)----------|
A|-0-----0-----|-------------|-8-----8-----|-8-----8-----|-0-----0-----------|
D|-------------|-------------|-------------|-------------|-------------------|

   Amadd9        F             Fadd9         Asus4          Amadd9
e|-------------|-------------|-------------|-------------|-------------------|
B|-----0---0---|-------------|-------------|-----5---5---|------0---0--------|
G|---5-------5-|-----5---5---|-----0---0---|-----------7-|----5-------5------|
D|-------7-----|---7-------7-|---7-------7-|---7---7-----|--7-----7----------|
A|-0-----------|-8-----8-----|-8-----8-----|-0-----------|-(0)---------------|
D|-------------|-------------|-------------|-------------|-------------------|

                              VERSE I
   F             Fadd9          Asus4          Amadd9          F
e|-------------|-------------||--------------|---------------|---------------|
B|-------------|-------------||------5---5---|-------0---0---|---------------|
G|-----5---5---|-----0---0---||------------7-|-----5-------5-|-----5---5-----|
D|---7-------7-|---7-------7-||----7---7-----|-7-------7-----|---7--(7)--7---|
A|-8-----8-----|-8-----8-----||--0-----------|---------------|-8-------------|
D|-------------|-------------||--------------|---------------|---------------|
                                          You took it          back

   Fadd9         Asus4             Amadd9              F
e|-------------|----------------|--------------------|--------------|
B|-------------|-----5-----5----|---------0------0---|--------------|
G|-----0---0---|-------------7--|-----5------------5-|------5---5---|
D|---7-------7-|---7---(7)------|--7-----------7-----|----7-------7-|
A|-8-----8-----|-0--------------|--------------------|-8------8-----|
D|-------------|----------------|--------------------|--------------|
                             well how could you        go and do     

   Fadd9           Asus4            Amadd9        F              Fadd9
e|---------------|---------------|--------------|--------------|-------------|
B|---------------|-----5-----5---|------0---0---|--------------|-------------|
G|-----0-----0---|-------------7-|----5-------5-|-----5----5---|-----0---0---|
D|---7---------7-|---7-----------|--7-----7-----|---7--------7-|---7-------8-|
A|-8-----8-------|-0-----(0)-----|-(0)----------|-8----(8)-----|-8-----8-----|
D|---------------|---------------|--------------|--------------|-------------|
   something like  that        My  finger-nail    phase

   Asus4               Amadd9            F               Fadd9             *
e|-------------------|-----------------|---------------|---------------------|
B|-------5------5----|------0-----0----|---------------|---------------------|
G|----------------7--|---5-----------5-|-----5-----5---|-----(0)-0------0----|
D|----7------7-------|-7-------7-------|---7---------7-|------7------------3-|
A|-0-----------------|-----------------|-8-------8-----|-8---------8-------3-|
D|-------------------|-----------------|---------------|---------------------|
   worst has got  the  best of you   I   ask you and I   know I    need to 


BRIDGE
   Elec. Gtr, slight distortion
    F5                                               C       
e|--------|-------------|-----------|--------------|-------|-----------------|
B|-(6)----|-(6)---------|-(6)-------|(6)-----------|-5-----|-5---------------|
G|--5-----|--5----------|--5------5-|-3--5---5-----|-5---5-|-5--5-5--0-------|
D|--3-----|--3----3---3-|--3--3---3-|-3--3---3---3-|-5---5-|-5--5-5--0-------|
A|--3-----|--3----3-3-3-|--3--3---3-|-3--3---3---3-|-3---3-|-3--3-3----------|
D|--3-----|--3------3---|--3--3-----|-3--3-------3-|-------|-----------------|
   change                                            change

                               VERSE II
   Gtr. 1                       back to clean elec. gtr
   G6                           Asus4         Aadd9           F
e|---(0)------|-(0)----0-0-0-||-------------|------(0)-(0)--|----------------|
B|----0--0--0-|--0-----0-0-0-||-----5---5---|-------0---0---|-----5----5-----|
G|-0--0--0--0-|--0-0-0-0-0-0-||-----------7-|---5---------5-|---7---------7--|
D|-0--0--0--0-|--0-0-0-0-0-0-||---7---7-----|-7-------7-----|-8------8-------|
A|-5--5--5--5-|--5-5-5-5-5-5-||-0-----------|---------------|----------------|
D|-5--5--5----|----5-5-5-5---||-------------|---------------|----------------|
|                                        You took it          back           |
|                                                                            |
|  Gtr. 2 (only displaying the strings used, 3rd and 2nd), elec. gtr clean   |
B|------------|--------------||-----10--10--|-------8---8---|-----12---12----|
G|------------|--------------||-----9---9---|-------9---9---|-----12---12----|


   Gtr. 1
   Fadd9            Asus4          Amadd9         F              Fadd9
e|----------------|--------------|--------------|--------------|-------------|
B|----------------|------5---5---|------0---0---|--------------|-------------|
G|-----0-----0----|------------7-|----5-------5-|------5---5---|---------0---|
D|---7----------7-|---7----7-----|--------7-----|----7-------7-|-----7-------|
A|-8------8-------|-0------------|-0------------|-8------8-----|-8-----------|
D|----------------|--------------|--------------|--------------|-------------|
|                             you rip my  heart  out of  my     then you     |
|                                                                            |
|  Gtr. 2                                                                    |
B|-----13----13---|------10--10--|------8---8---|------12--12--|---------13--|
G|-----12----12---|------9---9---|------9---9---|------12--12--|---------12--|


   Gtr. 1
              Asus4          Amadd9         F              Fadd9
e|----------|-------------|------(0)-(0)--|--------------|-------------------|
B|----------|-----5---5---|-------0---0---|--------------|-------------------|
G|-----0----|-----------7-|-----5-------5-|-----5----5---|------0-----0------|
D|--------7-|---7---7---7-|--7------7-----|---7--------7-|---7-----------7---|
A|-8--------|-0-----------|---------------|-8------8-----|-8-------8---------|
D|----------|-------------|---------------|--------------|-------------------|
|  put it     back      I'm pulling my      hair                         I   |
|                                                                            |
|  Gtr. 2                                                                    |
B|-----13---|-----10--10--|-------8---8---|-----12--12--|-------13----13-----|
G|-----12---|-----9---9---|-------9---9---|-----12--12--|-------12----12-----|


   Gtr. 1
   Asus4            Amadd9            F
e|----------------|------(0)--------|--------------|------------------------||
B|--------5---5---|-------0----0----|--------------|------------------------||
G|--------------7-|----5----------5-|-5------------|------------------------||
D|-----7----7-----|-7---------------|-7------------|------------------------||
A|-0--------------|---------0-------|-8------------|------------------------||
D|----------------|-----------------|--------------|------------------------||
|  let you just a   million times I   love you even though it isn't         ||
|                                                                           ||
|  Gtr. 2                                                                   ||
B|---------10-10--|-------8----8----|-13-----------|------------------------||
G|---------9--9---|-------9----9----|-10-----------|------------------------||


CHORUS
Elec. Gtr, Distortion
    F5                         D5                E5/D            F5
e|--------------|------------|-----------------|---------------|-------------|
B|--------------|------------|--------------(0)|---------------|-------------|
G|--5-----5---5-|-5--5-5-5-0-|-7------7----7/9-|-9-----9-9-9---|-5--5--5--5--|
D|--3---3-3-3-3-|-3--3-3-3-0-|-x---x--x--x-x---|-x-----x-x-x-0-|-3--3--3--3--|
A|--3---3-3-3-3-|-3--3-3-3-0-|-5---5-----5-5/7-|-7-----7-7-7-0-|-3--3--3--3--|
D|--3---3-3-3-3-|-3--3-3-3---|-0-----------0---|-0-------0-0-0-|-3-----3-----|
    fair                       Run we go        'round again     circles

  (F5)          D5                  E5/D          F5
e|------------|-------------------|-------------|-----------|----------------|
B|------------|-------------------|-------------|-----------|----------------|
G|-5--5-5-5-0-|-7----7----7-7-7/9-|-9--9-9-9----|-5-----5-5-|-5--5-5-5-------|
D|-3--3-3-3-0-|-x----x----x-x-x---|-x--x-x-x--0-|-3---3-3-3-|-3--3-3-3-0-----|
A|-3--3-3-3-0-|-5----5----5-5-5/7-|-7--7-7-7--0-|-3---3-3-3-|-3--3-3-3-0-----|
D|-3--3-3-3---|-0-----------------|-0---------0-|-3---3-----|-3--3---3-0-----|
                play this game      over     a-  gain

   D5              E5/D            A#5
e|---------------|---------------|-----------------|-----------------|
B|------------(0)|(0)------------|---------(11)----|-----11-11-11-11-|
G|-7---7--7--7/9-|-9-----9-9-9-0-|--10--10--10--10-|-10--10-10-10-10-|
D|-x---x--x--x---|-x-----x-x-x-0-|--8---8---8---8--|-8---8--8--8--8--|
A|-5---5--5--5/7-|-7-----7-7-7-0-|--8---8---8---8--|-8---8--8--8--8--|
D|-0---0--0--0---|-0-------------|--8---8-------8--|-8---8--8--8--8--|
   Run we go      'round again      cir-             cles

                            VERSE III
                            Elec. gtr, clean
                              Asus4         Amadd9        F
e|-----------------|-------||-------------|-------------|-------------|
B|-11-11-----------|-------||-----5---5---|-----0---0---|-------------|
G|-10-10--10-10-10-|--10---||-----------7-|-----------5-|-----5---5---|
D|-8--8---8--8--8--|--8----||---7---7-----|---7---7-----|---7-------7-|
A|-8--8---8--8--8--|--8----||-0-----------|-0-----------|-8-----8-----|
D|-8--8---8--8--8--|--8----||-------------|-x-----------|-------------|

   Fadd9         Asus4         Amadd9         F             Fadd9
e|-------------|-------------|--------------|-------------|------------------|
B|-------------|-----5---5---|------0---0---|-------------|------------------|
G|-----0---0---|-----------7-|---(5)------5-|-----5---5---|-----0---0--------|
D|---7-------7-|---7---7-----|-7------7-----|---7-------7-|---7-------7------|
A|-8-----8-----|-0-----------|--------------|-8-----8-----|-8-----8----------|
D|-------------|-------------|--------------|-------------|------------------|

   Asus4         Amadd9           F             Fadd9         Asus4
e|-------------|----------------|-------------|-------------|----------------|
B|-----5---5---|--------0---0---|-------------|-------------|-----5---5------|
G|-----------7-|------5-------5-|-----5---5---|-----0---0---|-----------7----|
D|---7---7-----|----------7-----|---7-------7-|---7-------7-|---7---7--------|
A|-0-----------|-0--------------|-8-----8-----|-8-----8-----|-0--------------|
D|-------------|----------------|-------------|-------------|----------------|
             You took it          back                                  You

   Amadd9              F                Fadd9               Asus4
e|-------------------|----------------|------------------|-------------------|
B|----------0----0---|----------------|------------------|-------5----5------|
G|-------x---------5-|-------5----5---|------0-------0---|---------------7---|
D|-7----------7------|-----7--------7-|---7------------7-|--7--7----7--------|
A|-0-----------------|-8-------8------|-8--------8-------|-(0)---------------|
D|-------------------|----------------|------------------|-------------------|
   ripped my  heart    out of  my       then you put it     back         I'm

   Amadd9           F              Fadd9         Asus4
e|----------------|--------------|-------------|----------------|
B|-------0----0---|--------------|-------------|-------5---5----|
G|----5---------5-|-----5----5---|-----0---0---|--------------7-|
D|-7-------7------|---7--------7-|---7-------7-|-----7---7------|
A|----------------|-8------------|-8-----8-----|-0--------------|
D|----------------|--------------|-------------|----------------|
   pulling my       hair                     I   let you just a  

   Amadd9            F                  Fadd9               F
e|-----------------|------------------|------------------|-------|-----|-----|
B|------0-----0----|--------------(0)-|------------------|-------|-----|-----|
G|----5----------5-|------5-----5-----|----------0---0---|-------|-----|-----|
D|-7-------7-------|---7--------------|--------7-------7-|-------|-----|-----|
A|-----------------|-8--------8-------|-8----------8-----|--8----|-----|-----|
D|-----------------|------------------|------------------|-(10)--|-----|-----|
   million times I   love you even      though it isn't fair

                          CHORUS
   (artificial Harmonics)   F5                        D5            
e|------5+--5+--5+--5+---||------------|------------|------------------------|
B|-5+---5+--5+--5+--5+---||------------|------------|-------------(0)--------|
G|-5+---5+--5+--5+--5+---||-5----5---5-|-5--5-5-5-0-|-7------7---7/9---------|
D|-x----x---x---x---x----||-3--3-3-3-3-|-3--3-3-3-0-|-x---x--x-x-x-----------|
A|-----------------------||-3--3-3-3-3-|-3--3-3-3-0-|-5---5----5-5/9---------|
D|-----------------------||-3--3-3-3-3-|-3--3-3-3---|-0----------0-----------|
                                                      Run we go

   E5/D            F5                      D5                  E5/D
e|---------------|----------|------------|-------------------|---------------|
B|---------------|----------|------------|-------------------|---------------|
G|-9-----9-9-9-x-|-5--5-5-5-|-5--5-5-5-0-|-7----7----7-7-7/9-|-9-9-9-9-------|
D|-x-----x-x-x-0-|-3--3-3-3-|-3--3-3-3-0-|-x----x----x-x-x---|-x-x-x-x-0-----|
A|-7-----7-7-7-0-|-3--3-3-3-|-3--3-3-3-0-|-5----5----5-5-5/7-|-7-7-7-7-0-----|
D|-0-------0---0-|-3----3---|-3--3-3-3---|-0-----------------|-0-------0-----|
  'round again     circles                 Play this game      over  again

   F5                      D5             E5/D           A#5
e|----------|------------|--------------|--------------|-------------|
B|----------|------------|-----------(0)|(0)-----------|-------11----|
G|-5----5-5-|-5--5-5-5---|-7---7--7-7/9-|-9----9-9-9-0-|-10-10-10-10-|
D|-3--3-3-3-|-3--3-3-3-0-|-x---x--x-x---|-x----x-x-x-0-|-8--8--8--8--|
A|-3--3-3-3-|-3--3-3-3-0-|-5---5--5-5/7-|-7----7-7-7-0-|-8--8--8--8--|
D|-3--3-3---|-3--3---3-0-|-0---0--0-0---|-0------------|-8--8-----8--|
                           Run we go    'round again     cir-         


e|-----------------|-----------------|----------||
B|-----11-11-11-11-|-11-11-----------|----------||
G|-10--10-10-10-10-|-10-10--10-10-10-|--10------||
D|-8---8--8--8--8--|-8--8---8--8--8--|--8-------||
A|-8---8--8--8--8--|-8--8---8--8--8--|--8-------||
D|-8---8--8--8--8--|-8--8---8--8--8--|--8-------||
   cles

INTERLUDE (part 1)
+ In part 1 of the interlude, the guitar sustains a feedback of E 
+ (equivalent of a feedback on 12th fret, 1st string) after a short A fdbk.,
+ so I'll tab the bass which is predominent throughout pt. 1 of the 
+ interlude. Another gtr. is doing some highly distorted sort of random 
+ feedbacks, which is also not tabbed here, just wail anything with high gain 
+ to cause feedback

[bass arr. for gtr.]
G|-----|----|--------|-------|-----|-------|--------|-------|----|-----------|
D|-----|----|---10---|---7---|-----|-------|---10---|---7---|----|-----------|
A|-0---|----|-8----8-|-5---5-|-0---|-------|-8----8-|-5---5-|-0--|-/12-------|
D|-----|----|--------|-------|-----|-------|--------|-------|----|-----------|
                                You took it  back                        

G|--------|-------|------|-------|--------|----------||
D|---10---|---7---|------|-------|-7--5---|----------||
A|-8----8-|-5---5-|-0----|-------|------8-|-7--5--3--||
D|--------|-------|------|-------|--------|----------||
                      You took it back

INTERLUDE (part 2)

e|-------------|-------------|-------------|-------------|----------------|
B|-----5---5---|-----0---0---|-------------|-------------|-----5---5------|
G|-----------7-|-----------5-|-----5---5---|-----0---0---|-----------7----|
D|---7---7-----|---7---7-----|---7-------7-|---7-------7-|---7---7--------|
A|-0-----------|-0-----------|-8-----8-----|-8-----8-----|-0--------------|
D|-------------|-------------|-------------|-------------|----------------|


e|-------------|-------------|-------------|-------------|----------------|
B|-----0---0---|-------------|-------------|-----5---5---|-----0---0------|
G|---5-------5-|-----5---5---|-----0---0---|-----------7-|---5-------5----|
D|-7-----7-----|---7-------7-|---7-------7-|---7---7-----|-------7--------|
A|-------------|-8-----8-----|-8-----8-----|-0-----------|-0--------------|
D|-------------|-------------|-------------|-------------|----------------|


e|-------------|-------------|-------------|--------------|---------------|
B|-------------|-------------|-----5---5---|------0---0---|---------------|
G|-----5---5---|-----0---0---|-----------7-|----5-------5-|-----5---5-----|
D|---7-------7-|---7-------7-|---7---7-----|--7-----7-----|---7-------7---|
A|-8-----8-----|-8-----8-----|-0-----------|-(0)----------|-8-----8-------|
D|-------------|-------------|-------------|--------------|---------------|


e|-------------|----(0)-------|--------------|-------------|--------------|
B|-------------|-----5----5---|-----0---0----|-------------|--------------|
G|-----0---0---|------------7-|---5------(5)-|-----5---5---|-----0---0----|
D|---7-------7-|---7----7-----|-7-----7------|---7-------7-|---7-------7--|
A|-8-----8-----|-0------------|--------------|-8-----8-----|-8-----8---x--|
D|-------------|--------------|--------------|-------------|--------------|


e|-------------|-------------|-------------|-------------|----------------|
B|-----5---5---|-------0-----|-----0---0---|-----0---0---|-----5---5------|
G|-----------7-|---5-------5-|---5-------5-|-------------|-----------7----|
D|---7---7-----|-7---7---7---|-------------|-------7---7-|---7---7--------|
A|-0-----------|-------------|-8-----8-----|-8-8---------|-0--------------|
D|-------------|-------------|-------------|-------------|----------------|


                                           CHORUS (w/OUTRO)
                         kick in distortion
			  (artif. harmonics)
e|----------------|-------|---------------||------------|------------|
B|--------0-------|-------|--4+-----------||------------|------------|
G|----5---------5-|--5----|--4+-----------||-5----5---5-|-5--5-5-5-0-|
D|--7---7---(7)---|--7----|--x------------||-3--3-3-3-3-|-3--3-3-3-0-|
A|-(0)------------|--8----|--x------------||-3--3-3-3-3-|-3--3-3-3-0-|
D|----------------|-------|---------------||-3--3-3-3-3-|-3--3-3-3---|
                             ^               [repeat chorus lyrics]

e|-------------|-----------|---------|-----------|-------------|-------------|
B|----------(0)|-----------|---------|-----------|-------------|-------------|
G|-7-7-7-7-7/9-|-9-9-9-9---|-5-5-5-5-|-5-5-5-5-0-|-7-7-7-7-7/9-|-9-9-9-9-----|
D|-x-x-x-x-x---|-x-x-x-x-0-|-3-3-3-3-|-3-3-3-3-0-|-x-x-x-x-x---|-x-x-x-x-0---|
A|-5-5-5-5-5/7-|-7-7-7-7-0-|-3-3-3-3-|-3-3-3-3-0-|-5-5-5-5-5/7-|-7-7-7-7-0---|
D|-0-----------|-0---0---0-|-3---3---|-3-3-3-3---|-0-----------|-0------(0)--|

e|---------|-----------|-----------|-----------|-------------|---------------|
B|---------|-----------|--------(0)|(0)--------|-------11----|---------------|
G|-5---5-5-|-5-5-5-5---|-7-7-7-7/9-|-9-9-9-9-0-|-10-10-10-10-|-10-10-10-10-10|
D|-3-3-3-3-|-3-3-3-3-0-|-x-x-x-----|-x-x-x-x-0-|-8--8--8--8--|-8--8--8--8--8-|
A|-3-3-3-3-|-3-3-3-3-0-|-5-5-5-5/7-|-7-7-7-7-0-|-8--8--8--8--|-8--8--8--8--8-|
D|-3-3-3---|-3-3---3-0-|-0-0-0-0---|-0---------|-8--8-----8--|-8--8--8--8--8-|

e|----------------|--------------|-------------|-------------|---------------|
B|-11-11----------|--------------|-------------|-------------|---------------|
G|-10-10-10-10-10-|-10-10-10-10\-|-5-5-5-5-5-5-|-5-5-5-5-5---|-7-7-7-7-7/9---|
D|-8--8--8--8--8--|-8--8--8--8-\-|-3-3-3-3-3-3-|-3-3-3-3-3-0-|-x-x-x-x-x-----|
A|-8--8--8--8--8--|-8--8--8--8-\-|-3-3-3-3-3-3-|-3-3-3-3-3-0-|-5-5-5-5-5/7---|
D|-8--8--8--8--8--|-8--8--8--8-\-|-3-3-3-3-3-3-|-3-3-3-3-3-0-|-0-------------|

e|-----------|---------|-----------|-------------|-----------|---------|
B|-----------|---------|-----------|-------------|-----------|---------|
G|-9-9-9-9---|-5---5-5-|-5-5-5-5---|-7-7-7-7-7/9-|-9-9-9-9---|-5-5-5-5-|
D|-x-x-x-x-0-|-3-3-3-3-|-3-3-3-3-0-|-x-x-x-x-x---|-x-x-x-x-0-|-3-3-3-3-|
A|-7-7-7-7-0-|-3-3-3-3-|-3-3-3-3-0-|-5-5-5-5-5/7-|-7-7-7-7-0-|-3-3-3-3-|
D|-0-------0-|-3-3-3---|-3-3---3-0-|-0-----------|-0-------0-|-3-3-3---|

e|-----------|-------------|-----------|-------------------|
B|-----------|-------------|-----------|-------------------|
G|-5-5-5-5---|-7-7-7-7-7/9-|-9-9-9-9---|-10-10-10-10-10-10-|
D|-3-3-3-3-0-|-x-x-x-x-x---|-x-x-x-x-0-|-8--8--8--8--8--8--|
A|-3-3-3-3-0-|-5-5-5-5-5/7-|-7-7-7-7-0-|-8--8--8--8--8--8--|
D|-3-3---3-0-|-0-----------|-0-------0-|-8--8--8--8--8--8--|

e|-------------------|-------------------|----------------------------------||
B|-------------------|-11-11-11-11-11-11-|-(11)-----------------------------||
G|-10-10-10-10-10-10-|-10-10-10-10-10-10-|--10------------------------------||
D|-8--8--8--8--8--8--|-8--8--8--8--8--8--|--8-------------------------------||
A|-8--8--8--8--8--8--|-8--8--8--8--8--8--|--8-------------------------------||
D|-8--8--8--8--8--8--|-8--8--8--8--8--8--|--8-------------------------------||


*************************************************************
| /   slide up
| \   slide down
| h   hammer-on
| +   harmonic
| x   Mute note
| ^   (under a note or notes) mean the notes are hit harder
*************************************************************
Tap to rate this tab
 
# A B C D E F G H I J K L M N O P Q R S T U V W X Y Z