Song name
# A B C D E F G H I J K L M N O P Q R S T U V W X Y Z

The Used - Yeast Lords tab

Hi Friends!
I don't know if this song is gonna be on new album by The Used. And if it's gonna, i
don't even know if it's gonna be called Yeast Lords. But if you subscribe The Used channel
or whatever, you could know that they release a new video called "Yeast Lords" where 
their guitarist, Quinn, is playing some riffs. I like that riff very very much, so i decided
that i'd to learn that! So, here it is, don't know if it's right, but i tried to do it 
the same way he plays. To me it sounds right. Enjoy :)

INTRO(probably):

e|-------------------------------|-------------------------|
B|-------------------------------|-------------------------|
G|-------------------------------|------------666----------|
D|--0xx0xxxxxxxxxxxxxxxx---------|--0--33333--xxx--0~------|
A|--0xx0xxxxxxxxxxxxxxxx--X-3----|--0--33333--555--0~------|
D|--0xx0xxxxxxxxxxxxxxxx---------|--0--33333-------0~------|


VERSE:

just drums (and maybe bass, singing, i don't know at this moment :D)

And then, somewhere in the middle... (listen to timing)

e|---------------------------------------------------|
B|---------------------------------------------------|
G|----7~---------------------------------------------|
D|----7~---------------------------------------------|
A|---------------------------------------------------|
D|--------------------------PICKSLIDE----------------|



PRECHORUS:

e|---------------------------------|
B|------000------------------------|
G|------333-------------------666--|
D|000---000----X3--0-33333----x----|xx(< or something very close to this. I'm not very 
good in tabbing :D)
A|000---------------0-33333---555--|
D|000---------------0-33333--------|
      |pm|



CHORUS:

e|-----------------------------------------------------------------------------------|
B|-----------------------------------------------------------------------------------|
G|-1414141414141414-----1313131313131313---- 7777777777777-----10101010101010--------|
D|-X-X-X-X-X-X-X-X-X----X-X-X-X-X-X-X-X-X----X-X-X-X-X-X-X------XXXXXXXXXXXXX--------|
A|-1212121212121212-----1111111111111111---- 5555555555555-----8888888888888---------|
D|----------------------8888888888888888-----3333333333333------6666666666666--------|


Repeat PRECHORUS, but end on 0~ and go on Verse

Then on CHORUS but without PRECHORUS

And then

e|----------------------------------------------------------------------------------|
B|----------------------------------------------------------------------------------|
G|----------------------------------------------------------------------------------|
D|----------------------------------------------------------------------------------|
A|----------------------------------------------------------------------------------|
D|0~----PICKSLIDE-----0~----PICKSLIDE-----0-3-2-1---00-3-2-1---00-3-2-1---00-3-2----|

And now, just wait on the entire album :)
Tap to rate this tab
 
# A B C D E F G H I J K L M N O P Q R S T U V W X Y Z