The Used - Smother Me tab

Smother Me-The Used
Tabbed by Victor Gonzalez

This is a mix of the piano and guitar part in one.
Hope you enjoy!


 Any time there's a G play it either like
 this or this
E|-G------G-|
B|-3--------|
G|-4------4-|
D|-5--or--5-|
A|-5------5-|
D|--------5-|

Intro
e|--------------------------------------------------------------------------|
B|-----5--5-----5--5-----5--5-----5--5-----5--5-----5--5-----5--5-----5--5--|
G|-----5--5-----5--5-----5--5-----5--5-----5--5-----5--5-----5--5-----5--5--|
D|--------------------------------------5--------5--------5--------5--------|
A|--3--------3--------3--------3--------3--------3--------3--------3--------|
D|--3--------3--------3--------3--------------------------------------------|

e|-------------------------------------------------------------|
B|-----5--5-----5--5-----5--5-----5--5-----5--5-----5--5-------|
G|-----5--5-----5--5-----5--5-----5--5-----5--5-----5--5-------|
D|--------------------------------------5--------5--------5~~--|
A|--3--------3--------3--------3--------3--------3--------3~~--|
D|--3--------3--------3--------3-------------------------------|
				
VERSE 1
e|-----0--0-----0--0-----0--0-----0--0-----0--0-----0--0-----0--0-----0--0--|4x(Last
B|-----1--1-----1--1-----1--1-----1--1-----1--1-----1--1-----1--1-----1--1--|  time 
G|-----2--2-----2--2-----2--2-----2--2-----0--0-----0--0-----0--0-----0--0--|  let it
D|--------------------------------------------------------------------------|  bleed
A|--------------------------------------3--------3--------3--------3--------|  into
D|--3--------3--------3--------3--------------------------------------------|  chorus)

Chorus
            F              G
I found my place in the world 
                    F  
Could stare at your face for the rest of 
    G
my days
 
C           G                      Am 
Now I can breathe, turn my insides out
    Bb 
and Smother me 
C          G            Am
Warm and alive I'm all over you 
          Bb(strike once)
Would you smother me?


e|--12-13-12-----|--------------------8-10-8~~--|
B|-----------13--|--10-8-10-8-10-8-10-----------|
G|---------------|------------------------------|
D|---------------|------------------------------|
A|---------------|------------------------------|
D|---------------|------------------------------|
(continued)
e|--12-13-12-----|------------------------------|
B|-----------13--|--10-8-10-8-10-8-10-8-10------|
G|---------------|-------------------------9~~--|
D|---------------|------------------------------|
A|---------------|------------------------------|
D|---------------|------------------------------|

e|-----0--0-----0--0-----0--0-----0--0-----0--0-----0--0-----0--0-----0-0--|
B|-----1--1-----1--1-----1--1-----1--1-----1--1-----1--1-----1--1-----1--1--|
G|-----2--2-----2--2-----2--2-----2--2-----0--0-----0--0-----0--0-----0--0--|
D|--------------------------------------------------------------------------|
A|--------------------------------------3--------3--------3--------3--------|
D|--3--------3--------3--------3--------------------------------------------|


e|-----0--0-----0--0-----0--0-----0--0-----0--0-----0--0-----0--0--------|
B|-----1--1-----1--1-----1--1-----1--1-----1--1-----1--1-----1--1--------|
G|-----2--2-----2--2-----2--2-----2--2-----0--0-----0--0-----0--0--------|
D|-----------------------------------------------------------------------|
A|--------------------------------------3--------3--------3--------3~~---|
D|--3--------3--------3--------3-----------------------------------------|

Chorus
            F              G
I found my place in the world 
                    F  
Could stare at your face for the rest of 
    G
my days
 
C           G                      Am 
Now I can breathe, turn my insides out
    Bb 
and Smother me 
C          G            Am
Warm and alive I'm all over you 
          Bb
Would you smother me?
Bb
Smother me (Smother me)
Bb
Smother me (Smother me)
Bb
Smother me (Smother me)
 
CHORDS FOR BRIDGE
e|--Dm-----Repeat 2x----Am---|-------------------|
B|--6~~---------F-------1~~--|--G-----------G----|
G|--7~~--------(2)~-----2~~--|--4~~---------4~~--|
D|--7~~---------3~~-----2~~--|--5~~---------5~~--|
A|--5~~---------3~~-----0~~--|--5~~---------5~~--|
D|--------------3~~----------|--5~~---------5~~--|

Bridge
Dm       F                  Am
When I'm alone time goes so slow 
Am
I need you here with me 
Dm         F 
And how my mistakes have made 
           Am
your heart break 
Am
Still I need you here with me 
G           G
So baby I, baby I'm here 

Chorus
C           G                      Am 
Now I can breathe, turn my insides out
    Bb 
and Smother me 
C          G            Am
Warm and alive I'm all over you 
          Bb
Would you smother me?

C           G                      Am 
Now I can breathe, turn my insides out
    Bb 
and Smother me 
C          G            Am
Warm and alive I'm all over you 
          Bb
Would you smother me?
Bb
Smother me (Smother me)
Bb
Smother me (Smother me)
Bb
Smother me (Smother me)

Outro
e|--12-13-12-----|--------------------8-10-8~~--|
B|-----------13--|--10-8-10-8-10-8-10-----------|
G|---------------|------------------------------|
D|---------------|------------------------------|
A|---------------|------------------------------|
D|---------------|------------------------------|
(continued)
e|--12-13-12-----|------------------------------|
B|-----------13--|--10-8-10-8-10-8-10-8-10------|
G|---------------|-------------------------9~~--|
D|---------------|------------------------------|
A|---------------|------------------------------|
D|---------------|------------------------------|

e|--12-13-12-----|--------------------8~~-------|
B|-----------13--|--10-8-10-8-10-8-10-----------|
G|---------------|------------------------------|
D|---------------|------------------------5~~---|
A|---------------|------------------------3~~---|
D|---------------|------------------------------|


 






Dear Samantha Rodriguez,
Whenever we play and sing this together this is how I'll play it.
I love you babe!

Love,
Your boyfriend.
Tap to rate this tab
 
# A B C D E F G H I J K L M N O P Q R S T U V W X Y Z