Song name
# A B C D E F G H I J K L M N O P Q R S T U V W X Y Z

The Used - I Come Alive tab

This song came out just before a couple of hours. I'm very proud of myself (even if i 
know it's not perfect) because it's my first attempt to tab the song, and i think it's a 
success !


Tabbed by: Paecemaker
Email: martin.jurus@gmail.com

-------------------------------------------------------------------------------
			                          I Come Alive - The Used
-------------------------------------------------------------------------------


Tuning: Drop D

So, here we go!

INTRO:

First Guitar (PALM MUTE)
e|---------------------------------------------------------------------------|
B|---------------------------------------------------------------------------|
G|---------------------------------------------------------------------------|
D|-0-------3-3-3---11-------------FOUR TIMES--(On-fourth-11-just-4x)---------|
A|-0-(4x)--3-3-3---11-(8x)---------------------------------------------------|
D|-0-------3-3-3---11--------------------------------------------------------|
                   (^ eleven)

Second guitar (just last two times)
e|---------------------------------------------------------------------------|
B|-18~-18~-18~-17~-1515151515151515~-----------------------------------------|
G|---------------------------------------------------------------------------|
D|---------------------------------------------------------------------------|
A|---------------------------------------------------------------------------|
D|---------------------------------------------------------------------------|




VERSE (ALL PALM MUTE)

e|---------------------------------------------------------------------------|
B|---------------------------------------------------------------------------|
G|---------------------------------------------------------------------------|
D|-0------3------11-------5------3------8-------7------11--------------------|
A|-0-(4x)-3-(4x)-11-(4x)--5-(4x)-3-(4x)-8-(4x)--7-(4x)-11--(4x)--------------|
D|-0------3------11-------5------3------8-------7------11--------------------|


e|---------------------------------------------------------------------------|
B|---------------------------------------------------------------------------|
G|---------------------------------------------------------------------------|
D|-0------3------11-------5------3------8-------7------11--------------------|
A|-0-(4x)-3-(4x)-11-(4x)--5-(4x)-3-(4x)-8-(4x)--7-(4x)-11-\\\\-Slide-down----|
D|-0------3------11-------5------3------8-------7------11--------------------|




CHORUS

e|---------------------------------------------------------------------------|
B|---------------------------------------------------------------------------|
G|---------------------------------------------------------------------------|
D|--3-------0--------3-------0-----------------------------------------------|
A|--3-(16x)-0-(16x)--3-(16x)-0-(16x)-----------------------------------------|
D|--3-------0--------3-------0-----------------------------------------------|


e|---------------------------------------------------------------------------|
B|---------------------------------------------------------------------------|
G|-3------5-------10---9---7---5---3-----------------------------------------|
D|-3-(4x)-5-(4x)--10---9---7---5---3-(8x)-\\\\\-Slide-down-------------------|
A|-1------3--------8---7---5---3---1-----------------------------------------|
D|---------------------------------------------------------------------------|




POST-CHORUS

Repeat INTRO guitar 1 (but just 2 times)




SECOND VERSE

No guitar, just bunch of electro sounds




CHORUS

Repeat




BRIDGE

e|------------------------------------------------------------------------------|
B|------------------------------------------------------------------------------|
G|------------------------------------------------------------------------------|
D|--8----------0--------------------------------------8-------------------------|
A|--8-(4x)-----0-(8x)--FOUR-TIMES-(But-on-fourth-just-8-(4x)-)------------------|
E|--8------7b--0--------------------------------------8-------------------------|





BRIDGE 2 (when Bert goes: "keep your distance...")

PALM MUTE
e|---------------------------------------------------------------------------|
B|---------------------------------------------------------------------------|
G|---------------------------------------------------------------------------|
D|-0------3------11-------5------3------8-------7----------------------------|
A|-0-(4x)-3-(4x)-11-(4x)--5-(4x)-3-(8x)-8-(4x)--7-(4x)-----------------------|
D|-0------3------11-------5------3------8-------7----------------------------|


e|---------------------------------------------------------------------------|
B|---------------------------------------------------------------------------|
G|---------------------------------------------------------------------------|
D|-0------3------11-------5------3------8-------7-------11-------------------|
A|-0-(4x)-3-(4x)-11-(4x)--5-(4x)-3-(4x)-8-(4x)--7-(4x)--11-(4x)--------------|
D|-0------3------11-------5------3------8-------7-------11-------------------|


THEN NO PALM MUTE


e|---------------------------------------------------------------------------------|
B|---------------------------------------------------------------------------------|
G|---------------------------------------------------------------------------------|
D|-0------3------11-------5------3------8-------7-------11-------------------------|
A|-0-(4x)-3-(4x)-11-(4x)--5-(4x)-3-(4x)-8-(4x)--7-(4x)--11-(4x)--------------------|
D|-0------3------11-------5------3------8-------7-------11-------------------------|


e|---------------------------------------------------------------------------------|
B|---------------------------------------------------------------------------------|
G|---------------------------------------------------------------------------------|
D|-0------3------11-------5------3------8-------7-------11-------------------------|
A|-0-(4x)-3-(4x)-11-(4x)--5-(4x)-3-(4x)-8-(4x)--7-(4x)--11-(4x)--------------------|
D|-0------3------11-------5------3------8-------7-------11-------------------------|




CHORUS

e|---------------------------------------------------------------------------|
B|---------------------------------------------------------------------------|
G|---------------------------------------------------------------------------|
D|-3-------------------------------------------------------------------------|
A|-3-JUST-HIT-ONCE---SLIDE---THEN-CONTINUE-CHORUS-AS-NORMALLY----------------|
D|-3-------------------------------------------------------------------------|



And then just BRIDGE 'til the end of the song



THAT'S ALL.
I think it's just right.


************************************

| /   slide up
| \   slide down
| h   hammer-on
| p   pull-off
| ~   vibrato
| +   harmonic
| x   Mute note
| b   Bend
| pb  Pre-bend
| br  Bend release
| pbr Pre-bend release
| brb Bend release bend

************************************
Tap to rate this tab
# A B C D E F G H I J K L M N O P Q R S T U V W X Y Z