Song name
# A B C D E F G H I J K L M N O P Q R S T U V W X Y Z

The Used - Hands And Faces tab

The Used
Vulnerable
Hands and Faces
Key: Em
learned it by ear, will update when I get more of it
Verse:
E|-------------------------------------------------------------------------------------|
B|-------------------------------------------------------------------------------------|
G|-------------------------------------------------------------------------------------|
D|--2--2-4-5---2-5-2--10--10-10-9---9-9---7--7-7-9--9-9--7--7-7-9--9-9-7-5-4-2---------|
A|--2--2-4-5---2-5-2--10--10-10-9---9-9---7--7-7-9--9-9--7--7-7-9--9-9-7-5-4-2---------|
D|--2--2-4-5---2-5-2--10--10-10-9---9-9---7--7-7-9--9-9--7--7-7-9--9-9-7-5-4-2---------|

Chorus:
E|---------------------------------------------------------------|
B|---------------------------------------------------------------|
G|---------------------------------------------------------------|
D|-2--2-2--2-2-2--5--5-5--5-5-5--0--0-0--0-0-0--7--7-7--7-7-7----|
A|-2--2-2--2-2-2--5--5-5--5-5-5--0--0-0--0-0-0--7--7-7--7-7-7----|
D|-2--2-2--2-2-2--5--5-5--5-5-5--0--0-0--0-0-0--7--7-7--7-7-7----|
Tap to rate this tab
# A B C D E F G H I J K L M N O P Q R S T U V W X Y Z