Song name
# A B C D E F G H I J K L M N O P Q R S T U V W X Y Z

The Used - Hurt No More tab

Tabbed out by: Michael Carter
Contact: www.facebook.com/michaelused
Band: The Used
Song: Hurt No More
Tuning: Drop D

I didn't see a tab out for this song yet, so I thought I would give it a shot and tab it 
out. It seems pretty close if not perfect to me.

Intro:

D:---------------------------|
A:---------------------------|
D:-------10--10--9--9--7--7--|
G:-0--0--x---x---x--x--x--x--|  X2
B:-0--0--8---8---7--7--5--5--|
e:-0--0----------------------|

D:--------------------------------------------------------------------|
A:--------------------------------------------------------------------|
D:-------------9--9--7--7--5--5---------------9--9--7--7--5--5--5--5--|
G:-0--0--3--3--x--x--x--x--x--x---0--0--3--3--x--x--x--x--x--x--x--x--|
B:-0--0--3--3--7--7--5--5--3--3---0--0--3--3--7--7--5--5--3--3--3--3--|
e:-0--0--3--3---------------------0--0--3--3--------------------------|
   .  .                           .  .

D:------------------------------------------------------------|
A:------------------------------------------------------------|
D:-------10--10--9--9--7--7---------10--10--9--9--7--7--7--7--|
G:-0--0--x---x---x--x--x--x---0--0--x---x---x--x--x--x--x--x--|
B:-0--0--8---8---7--7--5--5---0--0--8---8---7--7--5--5--5--5--|
e:-0--0-----------------------0--0----------------------------|

D:--------------------------------------------------------------------|
A:--------------------------------------------------------------------|
D:-------------9--9--7--7--5--5---------------9--9--7--7--5--5--5--5--|
G:-0--0--3--3--x--x--x--x--x--x---0--0--3--3--x--x--x--x--x--x--x--x--|
B:-0--0--3--3--7--7--5--5--3--3---0--0--3--3--7--7--5--5--3--3--3--3--|
e:-0--0--3--3---------------------0--0--3--3--------------------------|
   .  .                           .  .

Pre-Chorus:

D:----------------------------------------------|
A:----------------------------------------------|
D:-------10--10--9--9--7--7---------10----------|
G:-0--0--x---x---x--x--x--x---0--0--x-X12-3--3--|
B:-0--0--8---8---7--7--5--5---0--0--8-----3--3--|
e:-0--0-----------------------0--0--------3--3--|
                                          .  .

Chorus:

D:---------------------------------------------------------------|
A:---------------------------------------------------------------|
D:---------------------------------------------------------------|
G:-3------0------7------8------3-----3------0------7------8------|
B:-3-X16--0-X16--7-X16--8-X16--3-X4--3-X16--0-X16--7-X16--8-X16--|
e:-3------0------7------8------3-----3------0------7------8------|
                               .

First Half of Intro:
D:---------------------------|
A:---------------------------|
D:-------10--10--9--9--7--7--|
G:-0--0--x---x---x--x--x--x--|X2
B:-0--0--8---8---7--7--5--5--|
e:-0--0----------------------|

Intro X1

Pre-chorus X1

Chorus X1

Interlude:

D:----------------------------------------------------|
A:----------------------------------------------------|
D:-10--10--9~---10--10--9~---10--10--9~--10--10--12~--|
G:-x---x---x~---x---x---x~---x---x---x~--x---x----x~--|
B:-8---8---7~---8---8---7~---8---8---7~--8---8---10~--|
e:----------------------------------------------------|

Pre-Chorus X1

Chorus X1

End:

D:----------------------------------------------------------------------------|
A:----------------------------------------------------------------------------|
D:--------10--10-----9--9--7--7----------10--10--------9--9--------7--7--7--7-|
G:-0--0---x---x---0--x--x--x--x---0--0---x---x---0--0--x--x--0--0--x--x--x--x-|
B:-0--0---8---8---0--7--7--5--5---0--0---8---8---0--0--7--7--0--0--5--5--5--5-|
e:-0--0-----------0---------------0--0-----------0--0--------0--0-------------|
   .  .           .               .  .           .  .        .  .
Tap to rate this tab
# A B C D E F G H I J K L M N O P Q R S T U V W X Y Z