Song name
# A B C D E F G H I J K L M N O P Q R S T U V W X Y Z

The Used - Moving On tab

-----------------------------------------------------------------------------
                             Moving on - The Used
-----------------------------------------------------------------------------
Tabbed by: Robin van Schaik
E-mail: Robinguitarmusic@gmail.com

Guitar 1: Lead, Guitar 2: Rhytm

Tuning: Drop D

If you having problems playing this tab, please wach me play this song in HD on youtube: 
http://www.youtube.com/watch?v=iDLsbm_cL_k
don't forget to subscribe ;)

Intro: Guitar 1 (0:00)
e|--10-10------10-10--------10-10------10-10---------------|   end with: -10-10---10------|
B|--------8----------8-6----------6----------6-------------|             -------6---------|
G|---------------------------------------------------------|             -----------------|
D|---------------------------------------------------------|            
A|---------------------------------------------------------|            
D|---------------------------------------------------------|            


Intro: Guitar 2 (0:06)
e|----------------------------------------------------------------------|
B|----------------------------------------------------------------------|
G|----------------------------------------------------------------------|
D|--8-8-8-8-8-8-8-8--3-3-3-3-3-3-3-3--5-5-5-5-5-5-5-5--1-1-1-1-1-1-1-1--|
A|--8-8-8-8-8-8-8-8--3-3-3-3-3-3-3-3--5-5-5-5-5-5-5-5--1-1-1-1-1-1-1-1--|
D|--8-8-8-8-8-8-8-8--3-3-3-3-3-3-3-3--5-5-5-5-5-5-5-5--1-1-1-1-1-1-1-1--|

e|---------------------------------------------------------------------------|
B|---------------------------------------------------------------------------|
G|---------------------------------------------------------------------------|
D|--8-8-8-8-8-8-8-8--3-3-3-3-3-3-3-3--PM:--1-1-1-1-1-1-1-1--1-1-1-1-1-1-1-1--|
A|--8-8-8-8-8-8-8-8--3-3-3-3-3-3-3-3--PM:--1-1-1-1-1-1-1-1--1-1-1-1-1-1-1-1--|
D|--8-8-8-8-8-8-8-8--3-3-3-3-3-3-3-3--PM:--1-1-1-1-1-1-1-1--1-1-1-1-1-1-1-1--|
                                           x-x-x-x-x-x-x-x--x-x-x-x

Verse part 1: No guitars                                  


Verse part 2: Guitar 1  (0:33)
e|-----------------------------------------------------------------------|
B|--10--10--10--10---------------------------------10--------------------|
G|--10--10--10--10-------x6------at the end:-------10--------------------|
D|---8---8---8---8----------------------------------8--------------------|
A|---8---8---8---8-------------------------------------------------------|
D|-----------------------------------------------------------------------|


Chorus part 1: Guitar 1 & 2 (0:46)
e|----------------------------------------------------------------------|
B|----------------------------------------------------------------------|
G|----------------------------------------------------------------------|
D|--8-8-8-8-8-8-8-8--3-3-3-3-3-3-3-3--5-5-5-5-5-5-5-5--1-1-1-1-1-1-1-1--|
A|--8-8-8-8-8-8-8-8--3-3-3-3-3-3-3-3--5-5-5-5-5-5-5-5--1-1-1-1-1-1-1-1--|
D|--8-8-8-8-8-8-8-8--3-3-3-3-3-3-3-3--5-5-5-5-5-5-5-5--1-1-1-1-1-1-1-1--|

e|----------------------------------------------------------------------|
B|----------------------------------------------------------------------|
G|----------------------------------------------------------------------|
D|--8-8-8-8-8-8-8-8--3-3-3-3-3-3-3-3--1-1-1-1-1-1-1-1--1-1-1-1-1-1-1-1--|
A|--8-8-8-8-8-8-8-8--3-3-3-3-3-3-3-3--1-1-1-1-1-1-1-1--1-1-1-1-1-1-1-1--|
D|--8-8-8-8-8-8-8-8--3-3-3-3-3-3-3-3--1-1-1-1-1-1-1-1--1-1-1-1-1-1-1-1--|


Chorus part 2: Guitar 1 (0:59)
e|--10-10------10-10--------10-10------10-10--------|   
B|--------8---------8-6-----------6----------6------|                         
G|--------------------------------------------------|                       
D|--------------------------------------------------|              D|--1--
A|--------------------------------------------------|              A|--1--
D|--------------------------------------------------|   end with:  D|--1--


Chorus part 2: Guitar 2 (0:59)
e|----------------------------------------------------------------------|
B|----------------------------------------------------------------------|
G|----------------------------------------------------------------------|
D|--8-8-8-8-8-8-8-8--3-3-3-3-3-3-3-3--5-5-5-5-5-5-5-5--1-1-1-1-1-1-1-1--|
A|--8-8-8-8-8-8-8-8--3-3-3-3-3-3-3-3--5-5-5-5-5-5-5-5--1-1-1-1-1-1-1-1--|
D|--8-8-8-8-8-8-8-8--3-3-3-3-3-3-3-3--5-5-5-5-5-5-5-5--1-1-1-1-1-1-1-1--|

e|----------------------------------------------------------------------|
B|----------------------------------------------------------------------|
G|----------------------------------------------------------------------|
D|--8-8-8-8-8-8-8-8--3-3-3-3-3-3-3-3--1-1-1-1-1-1-1-1--1-1-1-1-1-1-1-1--|
A|--8-8-8-8-8-8-8-8--3-3-3-3-3-3-3-3--1-1-1-1-1-1-1-1--1-1-1-1-1-1-1-1--|
D|--8-8-8-8-8-8-8-8--3-3-3-3-3-3-3-3--1-1-1-1-1-1-1-1--1-1-1-1-1-1-1-1--|


Verse again

Chorus again


Bridge/Breakdown part 1: Guitar 1&2 (2:09)
e|----------------------------------|
B|----------------------------------|
G|----------------------------------|
D|--5----13--12----5----1--0--------|   x2
A|--5----13--12----5----1--0--------|
D|--5----13--12----5----1--0--------|


Bridge/Breakdown part 2: Guitar 1&2 (2:35)
e|-------------------------------|
B|-------------------------------|
G|-------------------------------|
D|--5-5---------5-5-5----1----0--|
A|--5-5--5-5-5--5-5-5----1----0--|      x2
D|--5-5--5-5-5--5-5-5----1----0--|
                 x-x-x


Bridge/Breakdown part 3: Guitar 1&2 (2:49)      PM:
e|--------------------------------------------------------------------|
B|--------------------------------------------------------------------|
G|--------------------------------------------------------------------|
D|--------------------------------------------------------------------|         D|--0-0--0-0--0-|
A|--------------------------------------------------------------------|         A|--0-0--0-0--0-|
D|-5-5-5-5-5-5-5-5-5-5-5-5-5-5-5-5--1-1-1-1-1-1-1-1--0-0-0-0-0-0-0-0--|    end: D|--0-0--0-0--0-|x2
PM:x-x-x-x-x-x-x-x-x-x-x-x-x-x-x-x--x-x-x-x-x-x-x-x--x-x-x-x-x-x-x-x


Little ending Bridge:(3:04)
e|-10-10------10-10-------10-10---10--------|
B|-------8---------8-6----------6-----------|
G|------------------------------------------|
D|------------------------------------------|
A|------------------------------------------|
D|------------------------------------------|


Chorus part 1

Chorus part 2


Ending:
e|----------------------------------------------------|
B|----------------------------------------------------|
G|----------------------------------------------------|
D|--5-5--5-5--5--5-5--5-5--5--------------------------|
A|--5-5--5-5--5--5-5--5-5--5--------------------------|
D|--5-5--5-5--5--5-5--5-5--5--------------------------|


Please Enjoy this tab! (and don't forget to rate! ;)
If you have any suggestions or problems, please e-mail me!

************************************
| /   slide up
| \   slide down
| h   hammer-on
| p   pull-off
| ~   vibrato
| +   harmonic
| x   Mute note
| b   Bend
| pb  Pre-bend
| br  Bend release
| pbr Pre-bend release
| brb Bend release bend
************************************
Tap to rate this tab
# A B C D E F G H I J K L M N O P Q R S T U V W X Y Z