Song name
# A B C D E F G H I J K L M N O P Q R S T U V W X Y Z

The Used - All That Ive Got Acoustic chords

Below are the chords that I have tabbed and that are used in the acoustic version of All
That I've Got by The Used which can be found and heard here:
http://www.youtube.com/watch?v=BTYw5NRy7yg. The tuning is in Drop C. Please listen to 
the song to learn the rhythm or strumming pattern. Rock on \m/


INTRO/CHORUS

D|-------------000--000------------000-----------|
A|---888--333--111--333--555--333--111--333~~----|
F|---777--222--000--000--444--222--000--222~~----|
C|---555--000--222--444--222--000--222--222~~----|
G|---555--000--333--555--222--000--333--000~~----|
C|---555--000------------222--000----------------|

VERSE

D|--------0------0---------0-------0---|
A|--------0------0---------0-------0---|
F|-12--12----1212---14--14----4--4-----|
C|-12--12----1212---14--14----5--5-----|  (However many times you need for
G|-10--10----1010---12--12----2--2-----|   the verse).
C|-10--10----1010---12--12----2--2-----|


The last part of every verse (usually when Bert says "I---" before the chorus comes in)
ends with Quinn strumming:

D|-----(0)------|
A|-----(0)------|
F|------12------|
C|------x-------|
G|------10------|
C|--------------|

BRIDGE

D|--------------0-0-0--=0-0-0----------------|
A|--------------0-0-0---0-0-0----------------|
F|--444----777--121212--141414---------------|
C|--222----555--121212--121212---------------|
G|--222--4/555--101010--121212---------------|
C|--222--4/555--101010--121212---------------|


If you have any comments or questions, even corrections, feel free to comment below and
I'll change it up! Thanks guys, hope you enjoy my first tab.

- Josh
Tap to rate this tab
# A B C D E F G H I J K L M N O P Q R S T U V W X Y Z