Song name
# A B C D E F G H I J K L M N O P Q R S T U V W X Y Z

The Used - With Me Tonight chords

This is "With Me Tonight" by The Used. I include the chords to play acoustically with an 
addition of the tabs to play the fun little interludes in this song.

e|----------------------------------------------------------------------------------------------------|
B|----------------------------------------------------------------------------------------------------|
G|----------------------------------------------------------------------------------------------------|
D|-----5-4-2--------------------5-4-2-----7------------5-4-2-----2-2-4-2-0---------5-4-2-----7--------|
A|-2-2-------5-4---------5--2-2-------5-4-------5--2-2-------5-4-----------2-0-2-2-------5-4-------5--|
D|---------------2-2-0-2--------------------0-2------------------------------------------------0-2----|


Bm                                          G
  The way I broke your heart very literally
                       D
  This ghost haunts me more than it should be
Bm                                                 G
  I'm not 'gonna walk away or turn my head in shame
                           D
  I never thought it could kill me


Em
  A clean slate
F#
  One more day
G          A
  Further away


Bm          F#
  I want you, you don't want me
G                D
  My mistake for wasting yours and mine
Bm          F#
  I want you, but will you stay
G
  With me today, with me today

e|------------------------------------------------|    (interlude)
B|------------------------------------------------|    Bm G D Bm A Bb
G|------------------------------------------------|
D|-----5-4-2--------------------5-4-2-----7-------|
A|-2-2-------5-4---------5--2-2-------5-4-------5-|
D|---------------2-2-0-2--------------------0-2---|

Bm                                                    G
  Just let me make some time to take it back a little
                               D
  the way you smile shines the heavens above me
Bm                                                    G
  I'm never 'gonna let you go - I want you all the time
                         D
  I 'gotta prove you can trust me


Em
  A clean slate
F#
  One more day
G          A
  Further away


Bm          F#
  I want you, you don't want me
G                D
  My mistake for wasting yours and mine
Bm          F#
  I want you, but will you stay
G
  With me today, with me today
Bm          F#
  I need you, you don't need me
G                D
  With you alone, I am not okay
Bm          F#
  I want you, but will you stay
G
  With me today, with me today

  With me today, with me today

e|----------------------------------------------------------------------------------------------------|
B|----------------------------------------------------------------------------------------------------|
G|------------------------------------------------------------------4---------------------------------|
D|---------4-5-5-4-2-2-4----------4-5-5-4-2-----------4-5-5-4-2-2-4------------4-5-5-4-2--------------|
A|2--2-2-2---------------2--2-2-2------------2--2-2-2-----------------2--2-2-2------------------------|
D|----------------------------------------------------------------------------------------------------|



   *

Em
  A clean slate
F#
  One more day
G          A
  Further away


Bm          F#
  I want you, you don't want me
G                D
  My mistake for wasting yours and mine
Bm          F#
  I want you, but will you stay
G
  With me today, with me today
Bm          F#
  I need you, you don't need me
G                D
  With you alone, I am not okay
Bm          F#
  I want you, but will you stay
G
  With me today, with me today
G
  With me today, with me today


e|----------------------------------------------------------------------------------------------------|
B|----------------------------------------------------------------------------------------------------|
G|----------------------------------------------------------------------------------------------------|
D|-----5-4-2--------------------5-4-2-----7------------5-4-2-----2-2-4-2-0---------5-4-2-----7--------|
A|-2-2-------5-4---------5--2-2-------5-4-------5--2-2-------5-4-----------2-0-2-2-------5-4-------5--|
D|---------------2-2-0-2--------------------0-2------------------------------------------------0-2----|

End on Bm



*When I play this song acoustically, I skip the interlude after the second chorus. It 
sounds better to an audience, in my opinion.
Tap to rate this tab
# A B C D E F G H I J K L M N O P Q R S T U V W X Y Z