Guitaretab - guitar tabs
Song name
# A B C D E F G H I J K L M N O P Q R S T U V W X Y Z

The Vaccines - Wreckin Bar tab

http://www.thevaccines.co.uk/

Based on their performance on Jools Holland.

Listen to the record for the rhythm

Verse:

    D#                  G#    Bb       D#

----------------------------------------------|
----------------------------------------------|
-----8----------------------------------8-----|
-----8-------------------6-----8--------8-----|
-----6-------------------6-----8--------6-----|
-------------------------4-----6--------------|

Pretty girl,            ra ra
wreckin' bar            ra ra 

Chorus:

   G#                D#

----------------------------------------|
----------------------------------------|
----------------------8-----------------|
---6------------------8-----------------|
---6------------------6-----------------|
---4------------------------------------|

The angels gave us...

   G#                Bb
[ Tab from: http://www.guitaretab.com/t/the-vaccines/254178.html ]
----------------------------------------|
----------------------------------------|
----------------------------------------|
---6------------------8-----------------|
---6------------------8-----------------|
---4------------------6-----------------|

I know I'm not from...

Solo:

---s11-11---11-11---11-11---11------11------11------11--11|
---s11-11---11-11---11-11---13p11---13b14---14r13---11--11|
---s12-12---12-12---12-12---12--------------------------12|
----------------------------------------------------------|
----------------------------------------------------------|
----------------------------------------------------------|

---4-4-4-4---4-4-4--3---------------------------------|
---4-4-4-4---6-6-6--4---------------------------------|
------------------------------------------------------|
------------------------------------------------------|
------------------------------------------------------|
------------------------------------------------------|

x2

Song order:

- Verse
- Chorus
- Verse
- Chorus
- Solo
- Chorus
Related for Wreckin Bar tab
Wreckin Bar chords by The Vaccines