The Vaccines - Post Break-up Sex tab

[Check other tabs for chords]

This is my first tab and it's easiest to play with a capo on 5.
(tabs NOT relevant to any capo.)

CHORUS:
E ---------------------------------------------------|
A ---------------------------------------------------|
D ---------------------------------------------------|
G 10(x32)-10(x16)-10(x16)----------------------------|
B 10(x32)-11(x16)-10(x16)----------------------------|
E ---------------------------------------------------|

SOLO:
E ----------------------------------------------------------|
A ----------------------------------------------------------|
D ------------5-7-------------------------------------------|
G 10--9--7-5-------10-9-7-10-9-10-10-9-7-5-7-5-10~----------|
B ----------------------------------------------------------|
e ----------------------------------------------------------|

BRIDGE
E --------------------------------------------------------------------------|
A --------------------------------------------------------------------------|
D --------------------------------------------------------------------------|
G -------------------------------------------13(x24)--10(x24)---------------|
B 15~--17~--18~-13~--15~--17~--18~--13~-14~--13(x24)--10(x24)--/16-15-13-15-|
e --------------------------------------------------------------------------|
Tap to rate this tab
 
# A B C D E F G H I J K L M N O P Q R S T U V W X Y Z