Song name
# A B C D E F G H I J K L M N O P Q R S T U V W X Y Z

The Vaccines - Norgaard tab

The whole song has only 3 Chords, easy right?

INTRO
E|----------------------|
B|----------------------|
G|--11------------------| X2
D|--11-x8--------9--11--|
A|--9------------9--11--|
E|--9------------7--9---|

VERSE
E|----------------------|
B|----------------------| x4
G|--11------------------|
D|--11-x8--------9--11--|
A|--9------------9--11--|
E|--9------------7--9---|

CHORUS
E|----------------------|
B|----------------------|
G|--11------------------| x4
D|--11-x8--------9--11--|
A|--9------------9--11--|
E|--9------------7--9---|

Break
E|----------------------|
B|----------------------|
G|--11------------------|
D|--11------11----------|
A|--9-x8----11-x7-------|
E|--9-------9-----------|

VERSE
E|----------------------|
B|----------------------|
G|--11------------------| x4
D|--11-x8--------9--11--|
A|--9------------9--11--|

CHORUS
E|----------------------|
B|----------------------|
G|--11------------------| x4
D|--11-x8--------9--11--|
A|--9------------9--11--|
E|--9------------7--9---|

Break
E|----------------------|
B|----------------------|
G|--11------------------|
D|--11------11----------|
A|--9-x8-----11-x7------|
E|--9-------9-----------|

SOLO (SINGING HIGH OOOH'S)
E|----------------------|
B|----------------------|
G|--11------------------| x4
D|--11-x8--------9--11--|
A|--9------------9--11--|
E|--9------------7--9---|

E|----------------------|
B|----------------------|
G|--11------------------|
D|--11------11----------|
A|--9-x8----11-x7-------|
E|--9-------9-----------|

SINGING WITH NO GUITAR (CHORUS VOCALS)

When the words start to say
"Saw you on the cover on Cross Bay Boulevard"
There is a break between "on" and "Cross"

When he starts saying "cross" - play

E|----------------------|
B|----------------------|
G|----------------------|
D|-9--------11----------| QUICK STRUMMING
A|-7--------11----------|
E|-7--------9-----------|

Back into
CHORUS

CHORUS
E|----------------------|
B|----------------------|
G|--11------------------| x4
D|--11-x8--------9--11--|
A|--9------------9--11--|
E|--9------------7--9---|

OUTRO (HIGH OOOH's)
Continuously play
E|--------------------------------------|
B|--------------------------------------|
G|--11--------------------------------11| 
D|--11-x24------------LAST LINE-11----11|
A|--9---------------------------11-x7-9-|
E|--9---------------------------9-----9-|
Tap to rate this tab
 
# A B C D E F G H I J K L M N O P Q R S T U V W X Y Z