The Vaccines - Wolf Pack tab

-------------------------------------------------------------------------------
			     WOLF PACK - Vaccines
-------------------------------------------------------------------------------

Tuning:Standard
Easy Song, not perfect but this is how i play.
Im 98% sure the chorus is correct

VERSE
Pretty much a C Chord moved down the frets

e|---------------------------------------------------------------------------|
B|-6x-6x-6x-xx-6-6-xx-6x-6x-6----5-5-5---3-3-3-------------------------------|
G|-xx-xx-xx-xx-x-x-xx-xx-xx-x----x-x-x---x-x-x-------------------------------|
D|-7x-7x-7x-xx-7-7-xx-7x-7x-7----6-6-6---4-4-4-------------------------------|
A|-8x-8x-8x-xx-8-8-xx-8x-8x-8----7-7-7---5-5-5-------------------------------|
E|---------------------------------------------------------------------------|

Or you can play it like this

e|---------------------------------------------------------------------------|
B|---------------------------------------------------------------------------|
G|---------------------------------------------------------------------------|
D|-10x-10x-10x-xx-10-10-xx-10x-10x-10----9-9-9---7-7-7-----------------------|
A|-8 x-8 x-8 x-xx--8--8-xx--8x--8x--8----7-7-7---5-5-5-----------------------|
E|---------------------------------------------------------------------------|

CHORUS
Played by another guitar with a capo on the fifth fret, but its easy enough to do 
without the capo if you mute the C-chord like in the verse

Chords With Capo


e|-0-------1-------3---------------------------------------------------------|
B|-1-------1-------3---------------------------------------------------------|
G|-0-------3-------5---------------------------------------------------------|
D|-2-------3-------5---------------------------------------------------------|
A|-3-------2-------6---------------------------------------------------------|
E|-0-------1-------3---------------------------------------------------------|

Chords Without Capo

e|-x------6--------8---------------------------------------------------------|
B|-6------6--------8---------------------------------------------------------|
G|-x------8--------10--------------------------------------------------------|
D|-7------8--------10--------------------------------------------------------|
A|-8------7--------9---------------------------------------------------------|
E|-x------6--------8---------------------------------------------------------|








You've seen the world
What did it look like?
You took a plane
I'll take a push bike
Run with the wolves
Calling all the wolf pack
When did you go and when did you get back?

I don't even know you
You're just someone new I don't want to talk to
You're wild, I don't find you crazy at all

You're on the rocks
Would you like to get some?
I'm kind of straight
Where do you come from?
I'm always right but what's your perception?
I'm kind of shy
Oh, didn't he mention?

I don't even know you
You're just someone new I don't want to talk to
You're wild, I don't find you crazy at all

I don't even know you
You're just someone new I don't want to talk to
You're wild, I don't find you crazy at all
I don't even know you
You're just someone new I don't want to talk to
You're wild, I don't find you crazy at all



************************************

| /   slide up
| \   slide down
| h   hammer-on
| p   pull-off
| ~   vibrato
| +   harmonic
| x   Mute note
| b   Bend
| pb  Pre-bend
| br  Bend release
| pbr Pre-bend release
| brb Bend release bend

************************************
Tap to rate this tab
 
# A B C D E F G H I J K L M N O P Q R S T U V W X Y Z