Song name
# A B C D E F G H I J K L M N O P Q R S T U V W X Y Z

The Vaccines - Family Friend chords

Highlighted       Show chord diagrams
-------------------------------------------------------------------------------
			     Family Friend- The Vaccines
-------------------------------------------------------------------------------
Tabbed by: green vaccines
Email: luke95_lfc@hotmail.co.uk

Tuning: standard

Okay my second vaccines song to tab for you, I know there is another chord tab of this 
but it only, tells you the main riff, so here you go ill do the full song




Justin: rhythm (capo 5th)


(Wait for two drum beats before you play each chord on the intro)

Intro:   C , F    x2

SORRY ABOUT SOME OF THE CHORDS THERE ALL RIGHT BUT HAVE MOVED OUT OF POSITION YOULL HAVE 
TO WORK OUT WHEN TO PLAY THEM :D

Verse:

                                                                                     
C                               F             G
They've all got their opinions but then what do they know

         C                       F           G
If you can't go back, where the hell do you go?

       C                      F         G
Does everybody really feel as high as a kite?

       C                         F            G
Well I don't really know if they do but they might



Chorus:                                            (keep playing part below throughout theChorus)

e|--0~------------------|-----0---0---0---0--0---0---0---0-----------------|
B|-------1~----5~--1--0-|---1---1---1---1---1--1---1---1-------------------|
G|----------------------|--------------------------------------------------|
D|----------------------|--------------------------------------------------|
A|----------------------|--------------------------------------------------|
E|----------------------|--------------------------------------------------|

                                                                                         
                                         You wanna......


(Play intro x2 after 1st chorus, after the second chorus carry on because the 3rd chorus 
is straight after)



Bridge:

F
Half baked girl

         C
Hey, I'm hardly surprised

F                   C
Snake eyes disguise everybody's lies

                                                         F                   C
                 F                   C
Faded nail marks on pale thighs and an awkward secret that someone denies


               F                           C
And now you're trying to get yourself back in

           F                           C
And youíre trying to get yourself back in

        G
Come on in

        G
Come on in   oooohhhh!!




       C                        F            G
You wanna get young but you're just getting older
        C                         F           G
and you had a fun summer but it's suddenly colder

       C                           F              G
If you want a bit of love put your head on my shoulder


Its cool    C, F, G


(repeat chorus and gradually get faster, then as you come near the end and get slower 
end on C

At the end after the C I just like to strum upwards, because it is close to what they do 
on the song

e|--0----------------------------------------------------------------------|
B|---0---------------------------------------------------------------------|
G|----0--------------------------------------------------------------------|
D|-----0-------------------------------------------------------------------|
A|------0------------------------------------------------------------------|
E|-------0-----------------------------------------------------------------|


Freddie: lead guitar (no capo)



Intro:

F,C


Verse:



        F                               Bb           C
They've all got their opinions but then what do they know

       F                        Bb          C
If you can't go back, where the hell do you go?

     F                        Bb        C
Does everybody really feel as high as a kite?

       F                         Bb          C
Well I don't really know if they do but they might


(Repeat intro)


Chorus:

F, Bb, C



Bridge:


Bb
Half baked girl

         F
Hey, I'm hardly surprised

Bb                  F
Snake eyes disguise everybody's lies

                                       Bb                  F
Faded nail marks on pale thighs and an awkward secret that someone denies

               Bb                          F
And now you're trying to get yourself back in
                                      (palm mute, and gradually get louder)

           Bb                          F
And youíre trying to get yourself back in

             C
so, Come on in

        C
Come on in   oooohhhh!!


(Repeat chorus until end, start to pick up speed)


When the singing stops and itís just instruments tremolo this:




e|------x------------------------------------------------------------------|
B|------x------------------------------------------------------------------|
G|------22-------------repeat until end------------------------------------|
D|------x------------------------------------------------------------------|
A|------20-----------------------------------------------------------------|
E|------x------------------------------------------------------------------|
Tap to rate this tab
# A B C D E F G H I J K L M N O P Q R S T U V W X Y Z