Song name
# A B C D E F G H I J K L M N O P Q R S T U V W X Y Z

The Vaccines - Norgaard tab

-------------------------------------------------------------------------------
                             SONG NAME - Band Name
-------------------------------------------------------------------------------
Tabbed by: Alex Gibbons
Email: alexgibbo5@hotmail.com


Tuning: Standard

Sounds closest on a Telecaster Deluxe neck pickup.

This is really simple but somehow the other tabs have it wrong so here is the correct 
version. The entire song is made up entirely of:

e|--9--9--9--9--9--9--9------7--7----9--9------------------------------------|
B|--11-11-11-11-11-11-11-----7--7----9--9------------------------------------|
G|--11-11-11-11-11-11-11-----8--8----10-10-----------------------------------|
D|--11-11-11-11-11-11-11-----9--9----11-11-----------------------------------|
A|--9--9--9--9--9--9--9------9--9----11-11-----------------------------------|
E|---------------------------------------------------------------------------|

Pre-verse is just and------------outro:

e|-9--9--9--9--9--9--------------------9--------------------9-------9--------|
B|-9--9--9--9--9--9--------------------11-------------------9-------11-------|
G|-10-10-10-10-10-10-------------------11--repeated until---10-x6---11-------|
D|-11-11-11-11-11-11-------------------11-------------------11------11-------|
A|-11-11-11-11-11-11-------------------9--------------------11------9--------|
E|---------------------------------------------------------------------------|
Tap to rate this tab
# A B C D E F G H I J K L M N O P Q R S T U V W X Y Z