Song name
# A B C D E F G H I J K L M N O P Q R S T U V W X Y Z

The Vaccines - Blow It Up tab

-------------------------------------------------------------------------------
                             BLOW IT UP - The Vaccines
-------------------------------------------------------------------------------
Tabbed by: Dan Hardy
E-mail: dhardy50@hotmail.co.uk

Tuning: Standard

Intro, start at 0:15
G|---------------------------------------------------------------------------------|
D|-4-4-4-4-4-4-4-4-1-1-1-1-1-1-1-1-4-4-4-4-4-4-4-4-1-1-1-1-1-1-1-1-----------------|
A|---------------------------------------------------------------------------------|
E|---------------------------------------------------------------------------------|

G|---------------------------------------------------------------------------------|
D|-4-4-4-4-4-4-4-4-1-1-1-1-1-1-1-1-------------------------------------------------|
A|--------------------------------2-2-2-2-2-2-2-2-4-4-4-4-4-4-4-4------------------|
E|---------------------------------------------------------------------------------|

G|---------------------------------------------------------------------------------|
D|-4-4-4-4-4-4-4-4-4-4-4-4-4-4-4-4-------------------------------------------------|
A|---------------------------------------------------------------------------------|
E|---------------------------------------------------------------------------------|

Main Riff
G|---------------------------------------------------------------------------------|
D|-4-4-4-4-4-4-4-4-1-1-1-1-1-1-1-1-------------------------------------------------|
A|---------------------------------------------------------------------------------|
E|---------------------------------------------------------------------------------|
x4

Chorus
G|---------------------------------------------------------------------------------|
D|-4-4-4-4-4-4-4-4-----------------------------------------------------------------|
A|----------------2-2-2-2-2-2-2-2--------------------------------------------------|
E|---------------------------------------------------------------------------------|
x2

G|---------------------------------------------------------------------------------|
D|-4-4-4-4-4-4-4-4-----------------------------------------------------------------|
A|----------------2-2-2-2-2-2-2-2-2-2-2-2-2-2-2-2-4-4-4-4-4-4-4-4------------------|
E|---------------------------------------------------------------------------------|

G|---------------------------------------------------------------------------------|
D|-4-4-4-4-4-4-4-4-4-4-4-4-4-4-4-4-------------------------------------------------|
A|---------------------------------------------------------------------------------|
E|---------------------------------------------------------------------------------|

Main Riff
G|---------------------------------------------------------------------------------|
D|-4-4-4-4-4-4-4-4-1-1-1-1-1-1-1-1-------------------------------------------------|
A|---------------------------------------------------------------------------------|
E|---------------------------------------------------------------------------------|
x4

Chorus
G|---------------------------------------------------------------------------------|
D|-4-4-4-4-4-4-4-4-----------------------------------------------------------------|
A|----------------2-2-2-2-2-2-2-2--------------------------------------------------|
E|---------------------------------------------------------------------------------|
x2

G|---------------------------------------------------------------------------------|
D|-4-4-4-4-4-4-4-4-----------------------------------------------------------------|
A|----------------2-2-2-2-2-2-2-2-2-2-2-2-2-2-2-2-4-4-4-4-4-4-4-4------------------|
E|---------------------------------------------------------------------------------|

Wait for a few secs, start at 1:50
G|---------------------------------------------------------------------------------|
D|-4-4-4-4-4-4-4-4-1-1-1-1-1-1-1-1-------------------------------------------------|
A|---------------------------------------------------------------------------------|
E|---------------------------------------------------------------------------------|
x4

G|---------------------------------------------------------------------------------|
D|-4-4-4-4-4-4-4-4-----------------------------------------------------------------|
A|----------------2-2-2-2-2-2-2-2--------------------------------------------------|
E|---------------------------------------------------------------------------------|
x2

G|---------------------------------------------------------------------------------|
D|-4-4-4-4-4-4-4-4-----------------------------------------------------------------|
A|----------------2-2-2-2-2-2-2-2-2-2-2-2-2-2-2-2-4-4-4-4-4-4-4-4------------------|
E|---------------------------------------------------------------------------------|

Outro
G|---------------------------------------------------------------------------------|
D|-4-4-4-4-4-4-4-4-4-4-4-4-4-4-4-4--------------------------------4hold------------|
A|--------------------------------2-2-2-2-2-2-2-2-4-4-4-4-4-4-4-4------------------|
E|---------------------------------------------------------------------------------|


| /  slide up
| \  slide down
| h  hammer-on
| p  pull-off
| ~  vibrato
| +  harmonic
| x  Mute note
===============================================================================
Tap to rate this tab
# A B C D E F G H I J K L M N O P Q R S T U V W X Y Z