Song name
# A B C D E F G H I J K L M N O P Q R S T U V W X Y Z

The Vaccines - If You Wanna tab

IF YOU WANNA - The Vaccines

Tabbed by: tommyson31

Tuning: EADGBe

INTRO - 0.06

e|---------------------------------------------------------------------------|
B|---------------------------------------------------------------------------|
G|--------7--------7--------7----7----7----7----7--7--7--7--7--7--7--7-------|
D|--------7--------7--------7----7----7----7----7--7--7--7--7--7--7--7-------|
A|--------5--------5--------5----5----5----5----5--5--5--5--5--5--5--5-------|
E|---------------------------------------------------------------------------|

VERSE 1 - 0.18
                                                          on the second time, play
e|--------------------------------------------------|     e|-------------------|
B|--------------------------------------------------|     B|-------------------|
G|--7-------------------------------------------7---|     G|-----7-------------|
D|--7----------------5--------7--------5--------7---|     D|-----7-------------|
A|--5----------------5--------7--------5--------5---|     A|-----5-------------|
E|-------------------3--------5--------3------------|X2   E|-------------------|

CHORUS - 0.48

e|------------------------------------------------------------------------------------|
B|------------------------------------------------------------------------------------|
G|---7777777777777777-------------------7777777777777777-----------------------7----7-|
D|---7777777777777777-55555555-77777777-7777777777777777-55555555-77777777-----7----7-|
A|---5555555555555555-55555555-77777777-5555555555555555-55555555-77777777-----5----5-|
E|--------------------33333333-55555555------------------33333333-55555555------------|

VERSE 2 - 1.05
                                                          on the second time, play
e|--------------------------------------------------|     e|--------------------|
B|--------------------------------------------------|     B|--------------------|
G|--7-------------------------------------------7---|     G|-----7--------------|
D|--7----------------5--------7--------5--------7---|     D|-----7--------------|
A|--5----------------5--------7--------5--------5---|     A|-----5--------------|
E|-------------------3--------5--------3------------|X2   E|--------------------|

MIDDLE 8 - 1.33

e|-------------------------------------|
B|-------------------------------------|
G|----7---------------------------7----|
D|----7--------5--------7----5----7----|
A|----5--------5--------7----5----5----|
E|-------------3--------5----3---------|

e|---------------------------------------------------------------------------|
B|---------------------------------------------------------------------------|
G|----7-----------------------------7-7-7-7-77777777-------------------------|
D|----7--------5--------7--7--5--5--7-7-7-7-77777777-------------------------|
A|----5--------5--------7--7--5--5--5-5-5-5-55555555-------------------------|
E|-------------3--------5--5--3--3-------------------------------------------|

CHORUS - 1.56

e|-------------------------------------------------------------------------------|
B|-------------------------------------------------------------------------------|
G|---7777777777777777-------------------7777777777777777-------------------------|
D|---7777777777777777-55555555-77777777-7777777777777777-55555555-77777777-------|
A|---5555555555555555-55555555-77777777-5555555555555555-55555555-77777777-------|
E|--------------------33333333-55555555------------------33333333-55555555-------|

SOLO - 2.08

e|-------------------------------------------------------------------------------|
B|-------------------------------------------------------------------------------|
G|---7777777777777777-------------------7777777777777777-------------------------|
D|---7777777777777777-55555555-77777777-7777777777777777-55555555-77777777-------|
A|---5555555555555555-55555555-77777777-5555555555555555-55555555-77777777-------|
E|--------------------33333333-55555555------------------33333333-55555555-------|

CHORUS - 2.20

e|-------------------------------------------------------------------------------|
B|-------------------------------------------------------------------------------|
G|---7777777777777777-------------------7777777777777777-------------------------|
D|---7777777777777777-55555555-77777777-7777777777777777-55555555-77777777-------|
A|---5555555555555555-55555555-77777777-5555555555555555-55555555-77777777-------|
E|--------------------33333333-55555555------------------33333333-55555555-------| 

end by strumming very fast
e|-------------------|
B|-------------------|
G|-----7-------------|
D|-----7-------------|
A|-----5-------------|
E|-------------------|

Tap to rate this tab
# A B C D E F G H I J K L M N O P Q R S T U V W X Y Z