Song name
# A B C D E F G H I J K L M N O P Q R S T U V W X Y Z

The Vaccines - Teenage Icon tab

Standard Tuning
Capo : 7th Fret (based on 7th fret chords)
picked up the chords from the video and live versions (20-07-2012)
By Guy Declerck

Pre-Chorus
E|--------------0|    
B|--------------1|
G|--------------0|
D|--7---5---3---2|
A|--7---5---3---3|
E|--5---3---1---0|

Right before Chorus
E|-----|
B|-----|
G|-----|
D|--3--|
A|--3--|
E|--1--|

Chorus
E|--0------|    
B|--1------|
G|--0------|
D|--2--3--5|
A|--3--3--5|
E|--0--1--3|

Should stay the same
First tab :)
Tap to rate this tab
 
# A B C D E F G H I J K L M N O P Q R S T U V W X Y Z