Song name
# A B C D E F G H I J K L M N O P Q R S T U V W X Y Z

The Vaccines - I Always Knew tab

Great song from The Vaccines upcoming sophomore album Come Of Age. Sure to become a 
single if you ask me! Any complaints will be read if sent to felixkryger@gmail.com. Thanks.


Band: The Vaccines
Genre: Indie rock
Album: Come Of Age (2012)
Song: I Always Knew
Tuning: Standard


E ------------------------------------------------------------------|
B ------------------------------------------------------------------|
G --11~---11--9------9--------------------9--12--11--9--------------|
D ---------------12------9-----9--12--12-----------------12--11-----|
A ------------------------------------------------------------------|
E ------------------------------------------------------------------|


 D                Bm
Down, down in my bones
                          G
Somewhere I'd never ever known
                          A
Right at the back of my head
D                          Bm
It hit me like a beam of light
             G
Hit me like ???
                             A
And I could have fell to the floor
             D                             Bm
'Cause you talk to me and it comes off the wall
    Em                               A
You talk to me and it goes over my head
         D                                 Bm
So let's go to bed before you say something real
       Em                               A
Let's go to bed before you say how you feel


             D
'Cause it's you
           Bm
I always, always knew
        Em
I oh, I always knew
          A
Oh, it's you


D                Bm
I try my best to unwind
              G         A
Nothing on my mind but you
D                          Bm
Oblivious to all that I'll owe
     G                          A
I'm hanging on to what I don't know
         D                                 Bm
So let's go to bed before you say something real
       Em                               A
Let's go to bed before you say how you feel


             D
'Cause it's you
           Bm
I always, always knew
        Em
I oh, I always knew
          A
Oh, it's you

           D
Yeah it's you
           Bm
I always, always knew
        Em
I oh, I always knew
          A
Oh, it's you


E ------------------------------------------------------------------|
B ------------------------------------------------------------------|
G -----------------------------9-------------9----------------------|
D -----9--11--12---9--11--12-----9--11--12-----12--11--9------------|
A -12-------------------------------------------------------12------|
E ------------------------------------------------------------------|

E ------------------------------------------------------------------|
B ----------------------------------------------------10------------|
G -----------------------------9-------------11--9------------------|
D -----9--11--12---9--11--12-----9--11--12--------------------------|
A -12---------------------------------------------------------------|
E ------------------------------------------------------------------|

           D
Well it's you
           Bm
I always, always knew
        Em
I oh, I always knew
          A
Oh, it's you

D             Bm
I knew, oh I always knew
       Em
Yes I always knew
          A
Oh, it's you


E --------------------------------------------------------------------------------|
B -----------------------------------------------------------------------------10-|
G -----------------------------------------12--11--9-----11-9-11-9-11-11-9--------|
D -----9--12-------9--12--11--9--------9------------------------------------------|
A -12----------12------------------12---------------------------------------------|
E --------------------------------------------------------------------------------|

(End on D.)
Tap to rate this tab
# A B C D E F G H I J K L M N O P Q R S T U V W X Y Z