Song name
# A B C D E F G H I J K L M N O P Q R S T U V W X Y Z

The Vaccines - Weirdo tab

Song: Weirdo
Artist: The Vaccines
Album: Come of Age

Use vibrato to get the 'wobbly' sound of Guitar 1

b = bend
r = release bend
v = vibrato
--------------------------------------------------------

Guitar 1
e|--------------------------------------------------|
B|--------------------------------------------------|
G|--------------------------------------------------|
D|---6b7r4------------------------6b7r4-------------| x2
A|---------6b7r4------------------------6b7r4-4-5---|
E|---------------4b5r2-4b5r2-4b5r-------------------|
_______________________________________________________

Guitar 1
e|--------------------------------------------------|
B|--------------------------------------------------|
G|---3b4r-------3b4r-------3b4r-------3b4-----------|
D|--------------------------------------------------|
A|----------------------------------------------4---|
E|--------------------------------------------------|
_______________________________________________________

Guitar 1
e|--------------------------------------------------|
B|--------------------------------------------------|
G|--3v----1v-------------------------------------1v-|
D|--------------4v----3v----1v----------4v----4v----|
A|--------------------------------------------------|
E|--------------------------------------------------|
                                                      x2
Guitar 2                                            
e|--------------------------------------------------|
B|--------------------------------------------------|
G|--3--3--3--3--3--3--3--3--7--7--7--7--8--8--8--8--|
D|--4--4--4--4--4--4--4--4--8--8--8--8--9--9--9--9--|
A|--4--4--4--4--4--4--4--4--8--8--8--8--9--9--9--9--|
E|--2--2--2--2--2--2--2--2--6--6--6--6--7--7--7--7--|
_______________________________________________________

Guitar 1
e|--------------------------------------------------|
B|--------------------------------------------------|
G|--------------------------------------------------|
D|---6b7r4------------------------6b7r4-------------|
A|---------6b7r4------------------------6b7r4-4-5---|
E|---------------4b5r2-4b5r2-4b5r-------------------|
_______________________________________________________

Guitar 1
e|--------------------------------------------------|
B|--------------------------------------------------|
G|--------------------------3b4r--3b4--3b4r--3b4----|
D|--6b7r--7b8r--6b7r--7b8r--------------------------|
A|-----------------------------------------------4--|
E|--------------------------------------------------|
_______________________________________________________

Guitar 1
e|--------------------------------------------------|
B|--------------------------------------------------|
G|--3v----1v-------------------------------------1v-|
D|--------------4v----3v----1v----------4v----4v----| x4
A|--------------------------------------------------|
E|--------------------------------------------------|
(play each note 4 times on the third repeat)
                                                    
Guitar 2                                            
e|--------------------------------------------------|
B|--------------------------------------------------|
G|--3--3--3--3--3--3--3--3--7--7--7--7--8--8--8--8--|
D|--4--4--4--4--4--4--4--4--8--8--8--8--9--9--9--9--| x4
A|--4--4--4--4--4--4--4--4--8--8--8--8--9--9--9--9--|
E|--2--2--2--2--2--2--2--2--6--6--6--6--7--7--7--7--|
_______________________________________________________

Guitar 1
e|------|
B|------|
G|--6v--|
D|------| x52
A|------|
E|------|

Guitar 2
e|--------------------------|
B|--------------------------|
G|--3--3--3--3--7--7--8--8--|
D|--4--4--4--4--8--8--9--9--| x3
A|--4--4--4--4--8--8--9--9--|
E|--2--2--2--2--6--6--7--7--|
_______________________________________________________

Guitar 1
e|--------------------------------------------------|
B|--------------------------------------------------|
G|---3b4r-------3b4r-------3b4r-------3b4-----------|
D|--------------------------------------------------|
A|----------------------------------------------4---|
E|--------------------------------------------------|
_______________________________________________________

Guitar 2
e|-----------|
B|-----------|
G|--3--7--8--|
D|--4--8--9--| x2
A|--4--8--9--|
E|--2--6--7--|
_______________________________________________________

Guitar 1
e|--------------------------------------------------|
B|--------------------------------------------------|
G|--3v----1v-------------------------------------1v-|
D|--------------4v----3v----1v----------4v----4v----| x2
A|--------------------------------------------------|
E|--------------------------------------------------|
(play each note 4 times on the first repeat)

Guitar 2                                            
e|--------------------------------------------------|
B|--------------------------------------------------|
G|--3--3--3--3--3--3--3--3--7--7--7--7--8--8--8--8--|
D|--4--4--4--4--4--4--4--4--8--8--8--8--9--9--9--9--|
A|--4--4--4--4--4--4--4--4--8--8--8--8--9--9--9--9--| x2
E|--2--2--2--2--2--2--2--2--6--6--6--6--7--7--7--7--|
_______________________________________________________

Guitar 1 
e|------|
B|------|
G|--6v--|
D|------| x52
A|------|
E|------|

Guitar 2
e|--------------------------|
B|--------------------------|
G|--3--3--3--3--7--7--8--8--|
D|--4--4--4--4--8--8--9--9--| x3
A|--4--4--4--4--8--8--9--9--|
E|--2--2--2--2--6--6--7--7--|
_______________________________________________________

Guitar 1
e|----5v--------------------------------------------|
B|-5v---5v-3v---------------------------------------|
G|------------6v-6v4v-4v-6v6v6v6v6v6v6v6v6v6v6v6v6v-|
D|--------------------------------------------------|
A|--------------------------------------------------|
E|--------------------------------------------------|

Guitar 2
e|--------------------------------------------------|
B|--7--7--7--7--6--6--6--6--------------------------|
G|--7--7--7--7--6--6--6--6--3--3--3--3--3--3--3--3--|
D|--7--7--7--7--6--6--6--6--4--4--4--4--4--4--4--4--|
A|--5--5--5--5--4--4--4--4--4--4--4--4--4--4--4--4--|
E|--------------------------2--2--2--2--2--2--2--2--|
________________________________________________________

Guitar 1
e|--------------------------------------------------|
B|--------------------------------------------------|
G|--3v----1v-------------------------------------1v-|
D|--------------4v----3v----1v----------4v----4v----|
A|--------------------------------------------------| x4
E|--------------------------------------------------|
(play each note 4 times on the third repeat)                             

Guitar 2                                            
e|--------------------------------------------------|
B|--------------------------------------------------|
G|--3--3--3--3--3--3--3--3--7--7--7--7--8--8--8--8--|
D|--4--4--4--4--4--4--4--4--8--8--8--8--9--9--9--9--| x4
A|--4--4--4--4--4--4--4--4--8--8--8--8--9--9--9--9--|
E|--2--2--2--2--2--2--2--2--6--6--6--6--7--7--7--7--|
________________________________________________________

End on
Guitar 2                                            
e|-----|
B|-----|
G|--3--|
D|--4--|
A|--4--|
E|--2--|
Tap to rate this tab
# A B C D E F G H I J K L M N O P Q R S T U V W X Y Z