Song name
# A B C D E F G H I J K L M N O P Q R S T U V W X Y Z

The Vaccines - Teenage Icon tab

-------------------------------------------------------------------------------
                          TEENAGE ICON - The Vaccines
-------------------------------------------------------------------------------
Tabbed by: Kieran Marshall
E-mail: n/a

Tuning: Standard (EADGBe)


Intro (x4)

e |-----------------|
B |-----------------|
G |-----------------|
D |-----------------|
A |-----------------|
E |-3-----7-x-7/10--|

Verse: (x8)

e |-----------------|
B |-----------------|
G |-----------------|
D |-----------------|
A |-----------------|
E |-3-----7-x-7/10--|

Pre-chorus (x2)

e |-----------------------|-----------------------|------------------|------------------|
B |-----------------------|-----------------------|------------------|------------------|
G |-12---12-12---12-12----|-11---11-11---11-11----|-9---9-9---9-9----|-7---7-7---7-7----|  
D |-----------------------|-----------------------|------------------|------------------|
A |-----------------------|-----------------------|------------------|------------------|
E |-----------------------|-----------------------|------------------|------------------|

...and then this, which isn't right but sounds okay.

e |-----------------------|----------------------|-------------------------|
B |-----------------------|----------------------|-10-10-10-10-10-10-10-10-|
G |-9----9/11----11-11----|-11-11-11-11-11-11-11-|-11-11-11-11-11-11-11-11-|  
D |-----------------------|----------------------|-------------------------|   
A |-----------------------|----------------------|-------------------------|
E |-----------------------|----------------------|-------------------------|

Chorus (x2)

e |-------------------------|-------------------------|-------------------------|
B |-12-12-12-12-12-12-12-12-|-12-12-12-12-12-12-12-12-|-12-12-12-12-12-12-12-12-|
G |-12-12-12-12-12-12-12-12-|-12-12-12-12-12-12-12-12-|-12-12-12-12-12-12-12-12-|
D |-------------------------|-------------------------|-------------------------|
A |-------------------------|-------------------------|-------------------------|
E |-------------------------|-------------------------|-------------------------|

e |-------------------------|
B |-10-10-10-10-10-10-10-10-|
G |-11-11-11-11-11-11-11-11-|
D |-------------------------|
A |-------------------------|
E |-------------------------|

Verse: (x12)

e |-----------------|
B |-----------------|
G |-----------------|
D |-----------------|
A |-----------------|
E |-3-----7-x-7/10--|

Pre-chorus (x2)

e |-----------------------|-----------------------|------------------|------------------|
B |-----------------------|-----------------------|------------------|------------------|
G |-12---12-12---12-12----|-11---11-11---11-11----|-9---9-9---9-9----|-7---7-7---7-7----|  
D |-----------------------|-----------------------|------------------|------------------|
A |-----------------------|-----------------------|------------------|------------------|
E |-----------------------|-----------------------|------------------|------------------|

...and then this, which isn't right but sounds okay.

e |-----------------------|----------------------|-------------------------|
B |-----------------------|----------------------|-10-10-10-10-10-10-10-10-|
G |-9----9/11----11-11----|-11-11-11-11-11-11-11-|-11-11-11-11-11-11-11-11-|  
D |-----------------------|----------------------|-------------------------|   
A |-----------------------|----------------------|-------------------------|
E |-----------------------|----------------------|-------------------------|

Chorus (x2)

e |-------------------------|-------------------------|-------------------------|
B |-12-12-12-12-12-12-12-12-|-12-12-12-12-12-12-12-12-|-12-12-12-12-12-12-12-12-|
G |-12-12-12-12-12-12-12-12-|-12-12-12-12-12-12-12-12-|-12-12-12-12-12-12-12-12-|
D |-------------------------|-------------------------|-------------------------|
A |-------------------------|-------------------------|-------------------------|
E |-------------------------|-------------------------|-------------------------|

e |-------------------------|
B |-10-10-10-10-10-10-10-10-|
G |-11-11-11-11-11-11-11-11-|
D |-------------------------|
A |-------------------------|
E |-------------------------|

Solo:

e |----------------------|--------|-------------------------|
B |----------------------|--------|-------------------------|
G |---7----7---9----9-7--|---5----|-20-20-20-20-19-19-19-19-|
D |-9----9---9-----------|-7----7-|-19-19-19-19-17-17-17-17-|
A |----------------------|--------|-------------------------|
E |----------------------|--------|-------------------------|

e |----------------|----------------|----------------|
B |-17----------17-|-19----------19-|-20----------20-|
G |-------16-------|-------19-------|-------19-------|
D |----------------|----------------|----------------|
A |----------------|----------------|----------------|
E |----------------|----------------|----------------|

e |-------------|-------------------|-------------------|-------------------------|
B |-------------|-------------------|-------------------|-------------------------|
G |-16~~~~14----|-12----------12----|-14----------14----|-16b17r16-16----14----12-|
D |-------------|-------12-------12-|-------12-------12-|-------------------------|
A |-------------|-------------------|-------------------|-------------------------|
E |-------------|-------------------|-------------------|-------------------------|

e |-------------------|-------------------|-------------------|-19----17----|
B |-17----------17----|-19----------19----|-20----------20----|-------------|
G |-------16-------16-|-------19-------19-|-------19-------19-|-------------|
D |-------------------|-------------------|-------------------|-------------|
A |-------------------|-------------------|-------------------|-------------|
E |-------------------|-------------------|-------------------|-------------|

e |-------------------------|-------------------------|-------------------------|
B |-------------------------|-------------------------|-------------------------|
G |-20-20-20-20-20-20-20-20-|-20-20-20-20-20-20-20-20-|-15-15-15-15-15-15-15-15-|
D |-19-19-19-19-19-19-19-19-|-19-19-19-19-19-19-19-19-|-16-16-16-16-16-16-16-16-|
A |-------------------------|-------------------------|-------------------------|
E |-------------------------|-------------------------|-------------------------|

e |-------------------------|
B |-------------------------|
G |-15-15-15-15-15-15-15-15-|
D |-14-14-14-14-14-14-14-14-|
A |-------------------------|
E |-------------------------|

Bridge #1:

e |--------------|--------------|--------------|--------------|
B |--------------|--------------|--------------|--------------|
G |-12--------12-|-11--------11-|-7---------7--|-9---------9--|  x2
D |-------10-----|-------10-----|-------9------|-------10-----|
A |--------------|--------------|--------------|--------------|
E |--------------|--------------|--------------|--------------|

e |-----------------|-----------------|-----------------|-----------------|---------------|
B |-13----12----10--|-13----12----13--|-15----13----12--|-17----15----13--|-12\\\\10\8----|
G |-----------------|-----------------|-----------------|-----------------|---------------|
D |-----------------|-----------------|-----------------|-----------------|---------------|
A |-----------------|-----------------|-----------------|-----------------|---------------|
E |-----------------|-----------------|-----------------|-----------------|---------------|

e |-------------------------|-------------------------|-------------------------|
B |-------------------------|-------------------------|-------------------------|
G |-15-15-15-15-15-15-15-15-|-15-15-15-15-15-15-15-15-|-15----------------------|
D |-16-16-16-16-16-16-16-16-|-14-14-14-14-14-14-14-14-|-14----------------------|
A |-------------------------|-------------------------|-------------------------|
E |-------------------------|-------------------------|-------------------------|


Verse: no guitar, 8 bars


Pre-chorus (x2)

e |-----------------------|-----------------------|------------------|------------------|
B |-----------------------|-----------------------|------------------|------------------|
G |-12---12-12---12-12----|-11---11-11---11-11----|-9---9-9---9-9----|-7---7-7---7-7----|  
D |-----------------------|-----------------------|------------------|------------------|
A |-----------------------|-----------------------|------------------|------------------|
E |-----------------------|-----------------------|------------------|------------------|

...and then this, which isn't right but sounds okay.

e |-----------------------|----------------------|-------------------------|
B |-----------------------|----------------------|-10-10-10-10-10-10-10-10-|
G |-9----9/11----11-11----|-11-11-11-11-11-11-11-|-11-11-11-11-11-11-11-11-|  
D |-----------------------|----------------------|-------------------------|   
A |-----------------------|----------------------|-------------------------|
E |-----------------------|----------------------|-------------------------|

Chorus (x2)

e |-------------------------|-------------------------|-------------------------|
B |-12-12-12-12-12-12-12-12-|-12-12-12-12-12-12-12-12-|-12-12-12-12-12-12-12-12-|
G |-12-12-12-12-12-12-12-12-|-12-12-12-12-12-12-12-12-|-12-12-12-12-12-12-12-12-|
D |-------------------------|-------------------------|-------------------------|
A |-------------------------|-------------------------|-------------------------|
E |-------------------------|-------------------------|-------------------------|

e |-------------------------|
B |-10-10-10-10-10-10-10-10-|
G |-11-11-11-11-11-11-11-11-|
D |-------------------------|
A |-------------------------|
E |-------------------------|

Bridge #2

e |----------------------|----------------------|-------------------------|
B |----------------------|----------------------|-12-12-12-12-12-12-12-12-|
G |---7----7---9----9-7--|---5----5---7----7-5--|-12-12-12-12-12-12-12-12-|
D |-9----9---9-----------|-7----7---7-----------|-------------------------|
A |----------------------|----------------------|-------------------------|
E |----------------------|----------------------|-------------------------|

e |-------------------------|-------------------------|-------------------------|
B |-12-12-12-12-12-12-12-12-|-12-12-12-12-12-12-12-12-|-15-15-15-15-15-15-15-15-|
G |-12-12-12-12-12-12-12-12-|-12-12-12-12-12-12-12-12-|-16-16-16-16-14-14-14-14-|
D |-------------------------|-------------------------|-------------------------|
A |-------------------------|-------------------------|-------------------------|
E |-------------------------|-------------------------|-------------------------|

Final Chorus (x2)

e |-------------------------|-------------------------|-------------------------|
B |-12-12-12-12-12-12-12-12-|-12-12-12-12-12-12-12-12-|-10-12-12-12-12-12-12-12-|
G |-12-12-12-12-12-12-12-12-|-12-12-12-12-12-12-12-12-|-11-12-12-12-12-12-12-12-|
D |-------------------------|-------------------------|-------------------------|
A |-------------------------|-------------------------|-------------------------|
E |-------------------------|-------------------------|-------------------------|

e |-------------------------|-------------------------|
B |-10-10-10-10-10-10-10-10-|-12----------------------|
G |-11-11-11-11-11-11-11-11-|-12----------------------|
D |-------------------------|-------------------------|
A |-------------------------|-------------------------|
E |-------------------------|-------------------------|

************************************

| /   slide up
| \   slide down
| h   hammer-on
| p   pull-off
| ~   vibrato
| +   harmonic
| x   Mute note
| b   Bend
| pb  Pre-bend
| br  Bend release
| pbr Pre-bend release
| brb Bend release bend

************************************
Tap to rate this tab
# A B C D E F G H I J K L M N O P Q R S T U V W X Y Z