Song name
# A B C D E F G H I J K L M N O P Q R S T U V W X Y Z

The Vaccines - Ghost Town tab

This Vaccines song is easy to play.

The chords are simple

For Bass:

E---------------------|
B---------------------|
G---------------------|
D---------------------|
A-------2-------------|
E-2-5-4-------2-5-4-0-|


For Guitar:
E--------------------|
B--------------------|
G-------4------------|
D-4-7-6-4---4-7-6-2--|
A-4-7-6-2---4-7-6-2--|
E-2-5-4-----2-5-4-0--|




These chords are repeat from the start at the end.

"Ghost Town" Lyrics


I've been driving in my car
 Trying to find some sign of life
 No one's about and it's kinda creepy
 It's an understatement to say it's sleepy

 It's a ghost town where no one goes
 It's a ghost town where no one goes

 Well you think your town is pretty boring
 Come and spend a day with me
 I am asking real politely
 I'm afraid to be alone

 It's a ghost town where no one goes
 It's a ghost town where no one goes

 Apocalyptic, distressing, needs addressing and I'm guessing
 Everybody likes to go... I know, I know, I know

 It's a ghost town where no one goes
 It's a ghost town where no one goes

 It's a ghost town...
Tap to rate this tab
# A B C D E F G H I J K L M N O P Q R S T U V W X Y Z