Song name
# A B C D E F G H I J K L M N O P Q R S T U V W X Y Z

The Vaccines - Norgaard tab

Norgaard  Lead Guitar

*Note*- This is my first ever tab so be nice :) I found the existing tabs were good, but 
none really showed the fills or much on timings which I personally find help. So yeah, 
I put them in.

Intro x2 (0.00)
e|-9--------7~~---9--9------------------------------------|
B|-11-------7~~---9--9------------------------------------|
G|-11-x8----8~~---10-10-----------------------------------|
D|-11-------9~~---11-11-----------------------------------|
A|-9--------9~~---11-11-----------------------------------|
E|----------7~~---9--9------------------------------------|

Verse 1 x4 (0.05)
e|-9--------7~~---9--9------------------------------------|
B|-11-------7~~---9--9------------------------------------|
G|-11-x8----8~~---10-10-----------------------------------|
D|-11-------9~~---11-11-----------------------------------|
A|-9--------9~~---11-11-----------------------------------|
E|----------7~~---9--9------------------------------------|

Chorus x4 (0.15)
e|-9--------7----9----------------------------------------|
B|-11-------7----9----------------------------------------|
G|-11-x8----8----10---------------------------------------|
D|-11-------9----11---------------------------------------|
A|-9--------9----11---------------------------------------|
E|----------7----9----------------------------------------|

(0.27)
e|-9~~~--9----9-9-9-9-9-9-9-------------------------------|
B|-11~~-11----9-9-9-9-9-9-9-------------------------------|
G|-11~~-11----10101010101010------------------------------|
D|-11~~-11----11111111111111------------------------------|
A|-9~~~--9----11111111111111------------------------------|
E|------------9-9-9-9-9-9-9-------------------------------|

Verse 2 x4 (0.29)
e|-9--------7~~---9--9------------------------------------|
B|-11-------7~~---9--9------------------------------------|
G|-11-x8----8~~---10-10-----------------------------------|
D|-11-------9~~---11-11-----------------------------------|
A|-9--------9~~---11-11-----------------------------------|
E|----------7~~---9--9------------------------------------|

Chorus x4 (0.41)
e|-9--------7----9----------------------------------------|
B|-11-------7----9----------------------------------------|
G|-11-x8----8----10---------------------------------------|
D|-11-------9----11---------------------------------------|
A|-9--------9----11---------------------------------------|
E|----------7----9----------------------------------------|

(0.51)
e|-9~~~--9----9-9-9-9-9-9-9-------------------------------|
B|-11~~-11----9-9-9-9-9-9-9-------------------------------|
G|-11~~-11----10101010101010------------------------------|
D|-11~~-11----11111111111111------------------------------|
A|-9~~~--9----11111111111111------------------------------|
E|------------9-9-9-9-9-9-9-------------------------------|

(1.04)
e|-9-9-9-9-9-9-9------------------------------------------|
B|-9-9-9-9-9-9-9------------------------------------------|
G|-10101010101010-----------------------------------------|
D|-11111111111111-----------------------------------------|
A|-11111111111111-----------------------------------------|
E|-9-9-9-9-9-9-9------------------------------------------|

Chorus - No guitar (1.05)

(1.15)
e|-7----9-------------------------------------------------|
B|-7----9-------------------------------------------------|
G|-8-x4-10-x4---------------------------------------------|
D|-9----11------------------------------------------------|
A|-9----11------------------------------------------------|
E|-7----9-------------------------------------------------|

Chorus x4 (1.16)
e|-9--------7----9----------------------------------------|
B|-11-------7----9----------------------------------------|
G|-11-x8----8-x4-10-x4------------------------------------|
D|-11-------9----11---------------------------------------|
A|-9--------9----11---------------------------------------|
E|----------7----9----------------------------------------|

Outro (1.27)
e|-9-9-9-9-------9-9-9-9-9-9-9--9---------------------------|E
B|-1111111-------9-9-9-9-9-9-9--11--------------------------|N
G|-1111111-x6----10101010101010-11--------------------------|D
D|-1111111-------11111111111111-11--------------------------|E
A|-9-9-9-9-------11111111111111-9---------------------------|N
E|---------------9-9-9-9-9-9-9------------------------------|D
Tap to rate this tab
# A B C D E F G H I J K L M N O P Q R S T U V W X Y Z