Song name
# A B C D E F G H I J K L M N O P Q R S T U V W X Y Z

The Vaccines - Aftershave Ocean tab

Im not 100% sure about this but sounds pretty accurate to me, try it out.
I was waiting to upload a cover but Im toooo lazy to do that soo here is the tab, 
any suggestion leave a comment or email me o whatever 
If you use this tab in a video idk just put the source, please C:


  =Intro=

e----------------|---------------|----------------|----------------|
B----------------|---------------|----------------|----------------|
G--7-7-7-7--7--xx|-7-7-7-7--7--xx|-2-2-2----------|-2-2-2----------|
D--7-7-7-6--6--xx|-7-7-7-6--6--xx|-2-2-2----------|-2-2-2----------|
A--0-0-0-0--7--xx|-0-0-0-0--7--xx|-0-0-0----------|-0-0-0----------|
E----------------|---------------|-------2--0-2-0-|-------2--0-2-0-|


e--------------------------------------/14141414141414141414\-|
B--9--9-10--991012--10--12--12/14--14--/14141414141414141414\-|
G--------------------------------------/14141414141414141414\-|
D-------------------------------------------------------------|
A-------------------------------------------------------------|
E-------------------------------------------------------------|

e-------------------------------------0-14------------------|
B--9--9-10--991012--10--12--12/14--14-0-14------------------|
G---------------------------------------14------------------|
D-----------------------------------------------------------|
A-----------------------------------------------------------|
E-----------------------------------------------------------|



  =Verse 1=

e-----5---------|-7--7--7--------|-9---9----9--9-|-8--8--8--8---7-7-|x2
B-----5---------|-9--9--9--------|-10--10---10-10|-10-10-10-10--9-9-|
G--6--6--6-6----|-9--9--9--------|-11--11---11-11|-10-10-10-10--9-9-|
D--7--7--7-7----|-9--9--9--------|-11--11---11-11|-10-10-10-10--9-9-|
A--7--7--7-7----|-7--7--7------7/|-9---9----9--9-|-8--8--8--8---7-7-|
E--5--5--5-5-7-9|---------10-9---|---------------|------------------|



  =Outro=

e------------------------------------------------------|
B--7------7-9----9b10r-7-7----5-5----------------------|
G------------------------------------7-7----5-5--4-----|
D------------------------------------------------------|
A------------------------------------------------------|
E------------------------------------------------------|

e------------------------------------------------------|
B--7------7-9----9b10r-7-7---9-9----10-10----12-12-----|
G------------------------------------------------------|
D------------------------------------------------------|
A------------------------------------------------------|
E------------------------------------------------------|



  =Chorus=

e---------------|--------------|--------------|--------------|
B--10---10-12b-9|-10---10-12b-9|-10---10-12b-9|-------14-12-9|
G---------------|--------------|--------------|-9-9-9--------|
D---------------|--------------|--------------|--------------|
A---------------|--------------|--------------|--------------|
E---------------|--------------|--------------|--------------|

e---------------|--------------|----------------------------|
B--10---10-12b-9|-10---10-12b-9|-15-14-12-10----------------|
G---------------|--------------|-------------10-10-10-10-9-9|
D---------------|--------------|----------------------------|
A---------------|--------------|----------------------------|
E---------------|--------------|----------------------------|



  =Verse 2=

e-----5---------|-7--7--7--------|-9---9----9--9-|-8--8--8--8---7-7-|
B-----5---------|-9--9--9--------|-10--10---10-10|-10-10-10-10--9-9-|
G--6--6--6-6----|-9--9--9--------|-11--11---11-11|-10-10-10-10--9-9-|
D--7--7--7-7----|-9--9--9--------|-11--11---11-11|-10-10-10-10--9-9-|
A--7--7--7-7----|-7--7--7------7/|-9---9----9--9-|-8--8--8--8---7-7-|
E--5--5--5-5-7-9|---------10-9---|---------------|------------------|


e-----5---------|---------------|-------------|-8--8--8--8---7-7-|
B-----5---------|---------------|-------------|-10-10-10-10--9-9-|
G--6--6--6-5-4-3|-2--2--2-3-4-5-|6--6--6-5-4-3|-10-10-10-10--9-9-|
D--7--7--7-6-5-4|-3--3--3-4-5-6-|7--7--7-6-5-4|-10-10-10-10--9-9-|
A--7--7--7-6-5-4|-3--3--3-4-5-6-|7--7--7-6-5-4|-8--8--8--8---7-7-|
E--5--5--5-4-3-2|-1--1--1-2-3-4-|5--5--5-4-3-2|------------------|



  =Outro=

e------------------------------------------------------|
B--7------7-9----9b10r-7-7----5-5----------------------|
G------------------------------------7-7----5-5--4-----|
D------------------------------------------------------|
A------------------------------------------------------|
E------------------------------------------------------|

e------------------------------------------------------|
B--7------7-9----9b10r-7-7---9-9----10-10----12-12-----|
G------------------------------------------------------|
D------------------------------------------------------|
A------------------------------------------------------|
E------------------------------------------------------|



  =Chorus=

e---------------|--------------|--------------|--------------|
B--10---10-12b-9|-10---10-12b-9|-10---10-12b-9|-------14-12-9|
G---------------|--------------|--------------|-9-9-9--------|
D---------------|--------------|--------------|--------------|
A---------------|--------------|--------------|--------------|
E---------------|--------------|--------------|--------------|

e---------------|--------------|----------------------------|
B--10---10-12b-9|-10---10-12b-9|-15-14-12-10----------------|
G---------------|--------------|-------------10-10-10-10-9-9|
D---------------|--------------|----------------------------|
A---------------|--------------|----------------------------|
E---------------|--------------|----------------------------|



  =Solo=

e--141414-1414-1414-12-10-9--|-9910--9--7/12--0----------|
B-------------------------0--|-00-------------0----------|
G----------------------------|---------------------------|
D----------------------------|---------------------------|
A----------------------------|---------------------------|
E----------------------------|---------------------------|

e-(141414-14-1414)-17-15-14--15--14--14-----14---------14-14--16-16--|
B---------------------------------------16------16/21----------------|
G--------------------------------------------------------------------|
D--141414-14-1414--14-14-14--14--14--14-14--14-----------------------|
A--------------------------------------------------------------------|
E--------------------------------------------------------------------|

e--------------------------------------/14141414141414141414\-|x2
B--9--9-10--991012--10--12--12/14--14--/14141414141414141414\-|
G--------------------------------------/14141414141414141414\-|
D-------------------------------------------------------------|
A-------------------------------------------------------------|
E-------------------------------------------------------------|



  =Outro=

e------------------------------------------------------|
B--7------7-9----9b10r-7-7----5-5----------------------|
G------------------------------------7-7----5-5--4-----|
D------------------------------------------------------|
A------------------------------------------------------|
E------------------------------------------------------|

e------------------------------------------------------|
B--7------7-9----9b10r-7-7---9-9----10-10----12-12-----|
G------------------------------------------------------|
D------------------------------------------------------|
A------------------------------------------------------|
E------------------------------------------------------|



  =Chorus=

e---------------|--------------|--------------|--------------|
B--10---10-12b-9|-10---10-12b-9|-10---10-12b-9|-------14-12-9|
G---------------|--------------|--------------|-9-9-9--------|
D---------------|--------------|--------------|--------------|
A---------------|--------------|--------------|--------------|
E---------------|--------------|--------------|--------------|

e---------------|--------------|---------------------------|
B--10---10-12b-9|-10---10-12b-9|-15-14-12-10---------------|
G---------------|--------------|-------------10-10-10-10-9-|
D---------------|--------------|---------------------------|
A---------------|--------------|---------------------------|
E---------------|--------------|---------------------------|

e----------------|--------------|--------------|-------------------|
B--14---14-15b-12|-14---1-15b-12|-14---1-15b-12|----------14-12-12/|
G----------------|--------------|--------------|-13-13-13----------|
D----------------|--------------|--------------|-------------------|
A----------------|--------------|--------------|-------------------|
E----------------|--------------|--------------|-------------------|

e----------------|--------------|---------------|-------------------------------|
B--14---14-15b-12|-14---1-15b-12|-/15-14-12-----|-------------------------------|
G----------------|--------------|-------------14|-10-10-10-10--12-12/14-14------|
D----------------|--------------|---------------|-------------------------------|
A----------------|--------------|---------------|-------------------------------|
E----------------|--------------|---------------|-------------------------------|




-f.alejandro27@gmail.com
-www.confort-reciclado.tumblr.com
-www.lastfm.es/user/mr_ahab
Tap to rate this tab
 
# A B C D E F G H I J K L M N O P Q R S T U V W X Y Z