Song name
# A B C D E F G H I J K L M N O P Q R S T U V W X Y Z

The Van Jets - Electric Soldiers tab

Artist:The Van Jets
Song:Electric Soldiers

Ok this is certainly the best belgian music...so enjoy!
Comments are always welcome

Use a nice distortion for this song...

d=downstroke
u=upstroke
pm=palm muted

~=ring
/=slide
b=bend
br=bend release
x=ghost note
intro:

e-----------------------------------------------|
B----------10-8---8-----------------------------|
G---------------9---7-9-------------------------|
D--7~-------------------------------------------|
A--7~-x4----------------------------------------|
E--5~-------------------------------------------|
   d

verse: starts after:"people come on!"

e-----------------------------------------------|
B-----------------------------------------------|
G-----------------7-5---------------------------|
D--77-x-55-x-22-x-7-5---------------------------|
A--77-x-55-x-22-x-5-3---------------------------|
E--55-0-33-0-00-0-------------------------------|

chorus:same as verse but guitar 2 play this:
       
e-----------------------------------------------|
B--/10-8---10b12br-8-10-8-----------------------|
G--------9--------------------------------------|
D-----------------------------------------------|
A-----------------------------------------------|
E-----------------------------------------------|

bridge: "words,words,words,talking to be..."

e-----------------------------------------------|
B-----------------------------------------------|
G-----------------------------------------------|
D--7~------------7~-----------------------------|
A--7~-x3--snare--7~-x3--------------------------|
E--5~-----drum---5~-----...---------------------|

Van Jets rock!

Tap to rate this tab
 
# A B C D E F G H I J K L M N O P Q R S T U V W X Y Z