Guitaretab - guitar tabs
Song name
# A B C D E F G H I J K L M N O P Q R S T U V W X Y Z

The Vandelles - Lovely Weather tab

Such a neat song. I think I got it all down. Just listen for the arrangement of the riffs.

Pretty simple.

    Gtr I
    Q.   E E. E. E   Q.   E E. E. E
||-----------------|-------------------|
||o----------------|-------------------|
||-----------------|-------------------|
||-----------------|-------------------|
||o--------2--1----|--------2--1-------|
||--1----1-------4-|-1----1-------4----|


  E E E E E E E E E E E E E E E E
|------------------------------------|
|------------------------------------|
|------------------------------------|
|------------------------------------|
|-----------------4-4-4-4-1-1-2-2----|
|-1-1-1-1-4-4-4-4--------------------|


  Gtr I
  Q.   E E. E. E   Q.   E E. E. E
|----------------|-------------------|
|----------------|-------------------|
|----------------|-------------------|
|----------------|-------------------|
|--------2--1----|--------2--1-------|
|-1----1-------4-|-1----1-------4----|


  1.                                  2.
  E E E E E E E E E E E E E E E E     E E E E E E E E E E E E E E E E
|----------------------------------||---------------------------------|
|---------------------------------o||---------------------------------|
|----------------------------------||---------------------------------|
|-3-3-3-3--------------------------||-3-3-3-3-3-3-3-3-3-3-3-3-3-3-3-3-|
|-----------------4-4-4-4-1-1-2-2-o||---------------------------------|
|---------4-4-4-4------------------||---------------------------------|


    Q E E E Q.   Q  E E E Q  E
||---------------------------------||
||o-------------------------------o||
||---------------------------------||
||---------------------------------||
||o-3-3-3-3-3----3--3-3-6-2--2----o||
||--1-1-1-1-1----1--1-1-4-0--0-----||

[ Tab from: http://www.guitaretab.com/t/the-vandelles/104094.html ]
    Gtr II
    Q. Q. Q Q.  E Q Q
||------------------------||
||o----------------------o||
||------------------------||
||------------------------||
||o-------2-------1------o||
||--2--0----5---5---3-----||


    Gtr I
    E  E  E  E  E  E  E  Q  E  E  E  E  E  E  E
||--------------------------------------------------||
||o------------------------------------------------o||
||--------------------------------------------------||
||--------------------------------------------------||
||o-1--1-----------------1--1----------------------o||
||--------4--4--1--1--1--------4--4--1--1--1--1-----||


  E E E E E E E E E E E E E E E E
|------------------------------------|
|------------------------------------|
|------------------------------------|
|------------------------------------|
|-----------------4-4-4-4-1-1-2-2----|
|-1-1-1-1-4-4-4-4--------------------|


  Gtr I
  Q.   E E. E. E   Q.   E E. E. E
|----------------|-------------------|
|----------------|-------------------|
|----------------|-------------------|
|----------------|-------------------|
|--------2--1----|--------2--1-------|
|-1----1-------4-|-1----1-------4----|


  E E E E E E E E E E E E E E E E
|------------------------------------|
|------------------------------------|
|------------------------------------|
|-3-3-3-3----------------------------|
|-----------------4-4-4-4-1-1-2-2----|
|---------4-4-4-4--------------------|


  Gtr I
  Q.   E E. E. E   Q.   E E. E. E
|----------------|-------------------|
|----------------|-------------------|
|----------------|-------------------|
|----------------|-------------------|
|--------2--1----|--------2--1-------|
|-1----1-------4-|-1----1-------4----|


  E E E E E E E  H E H
|---------------------------|
|---------------------------|
|---------------------------|
|---------------------------|
|----------------1----------|
|-1-1-1-1-4-4-4----x-7b9----|


http://www.myspace.com/thevandelles
×
Lovely Weather