Guitaretab - guitar tabs
Song name
# A B C D E F G H I J K L M N O P Q R S T U V W X Y Z

The Vanished - Chemical Reaction tab

Song: Chemical Reaction
Artist: The Vanished
Tabbed By: Brad Schantz (stupefy99@yahoo.com)

Drop D tuning, tuned down 1/2 step (Db Ab Db Gb Bb Eb)

 /  - Slide up
 \  - Slide down
 *  - Harmonic
...  Palm Mute



**INTRO**

Guitar 1:

Eb|-----------------------------------------------------------------|
Bb|-----------------------------------------------------------------|
Gb|--------7------6~-----------------------7------6~--------6h7p6---|
Db|/7------------------------------/7--------------------7--------7-|
Ab|-----------------------------------------------------------------|
Db|-----------------------------------------------------------------|

Eb|-----------------------------------------------------------------|
Bb|-----------------------------------------------------------------|
Gb|--------7--------------------7-7-7-------------------------------|
Db|-5-------------5-------------5-5-4-------------------------------|
Ab|-----------------------------------------------------------------|
Db|-----------------------------------------------------------------|


Guitar 2:

Eb|-----------------------------------------------------------------|
Bb|------------------------7*------------------------------7*-------|
Gb|-7*--------------5*------------7*----------------5*------------7*|
Db|-----------------------------------------------------------------|
Ab|-----------------------------------------------------------------|
Db|-----------------------------------------------------------------|

Eb|-----------------------------------------------------------------|
Bb|-----------------7*----------------------------------------------|
Gb|-----------------------7*----------------------------------------|
Db|-----------------------------7*----------------------------------|
Ab|-----------------------------------------------------------------|
Db|-----------------------------------------------------------------|



**VERSE 1**  (Play twice)

Eb|-----------------------------------------------------------------|
Bb|-----------------------------------------------------------------|
Gb|--------7------6~-----------------------7------6~--------6h7p6---|
Db|/7---------(7)------------------/7--------------------7--------7-|
Ab|-----------------------------------------------------------------|
Db|-----------------------------------------------------------------|

Eb|-----------------------------------------------------------------|
Bb|-----------------------------------------------------------------|
Gb|--------7--------------------7-7-7---------------6-6-6-6-6-6-6-6-|
Db|-5-------------5-------------5-5-4-------------------------------|
Ab|-----------------------------------------------------------------|
Db|-----------------------------------------------------------------|



**PRE-CHORUS**

Eb|-----------------------------------------------------------------|
Bb|-----------------------------------------------------------------|
Gb|-4---------------------------6---7---------------7---------------|
Db|-2---------------------------4---5---------------5---------------|
Ab|-----------------------------------------------------------------|
Db|-----------------------------------------------------------------|



**CHORUS**

Eb|-----------------------------------------------------------------|
Bb|---------------------------------3~------------------------------|
Gb|---------------------------------2~------------------------------|
Db|-5-------5-----5/9---9---9-------0~------------------------------|
Ab|-5-------5-----5/9---9---9-------0~------------------------------|
Db|-5-------5-----5/9---9---9-------0~------------------------------|
[ Tab from: http://www.guitaretab.com/t/the-vanished/99445.html ]
Eb|-----------------------------------------------------------------|
Bb|-----------------------------------------------------------------|
Gb|-----------------------------------------------------------------|
Db|-5-------5-----5/9---9---9-------7~----------------------------4-|
Ab|-5-------5-----5/9---9---9-------7~----------------------------4-|
Db|-5-------5-----5/9---9---9-------7~----------------------------4-|

Eb|-----------------------------------------------------------------|
Bb|---------------------------------3~------------------------------|
Gb|---------------------------------2~------------------------------|
Db|-5-------5-----5/9---9---9-------0~----------------------x--7----|
Ab|-5-------5-----5/9---9---9-------0~----------------------x--7----|
Db|-5-------5-----5/9---9---9-------0~----------------------x--7----|

Eb|-----------------------------------------------------------------|
Bb|-----------------------------------------------------------------|
Gb|-----------------------------------------------------------------|
Db|-5-------5-----5/9---9---9-------7---7---7---7---7---7---7---7---|
Ab|-5-------5-----5/9---9---9-------7---7---7---7---7---7---7---7---|
Db|-5-------5-----5/9---9---9-------7---7---7---7---7---7---7---7---|



**VERSE 2**  

Same as Verse 1, but Guitar 2 plays:

Eb|-----------------------------------------------------------------|
Bb|-----------------------------------------------------------------|
Gb|-----------------------------------------------------------------|
Db|-9-9-9-9-9-9-9-9-9-9-9-9-9-9-9-9-9-9-9-9-9-9-9-9-9-9-9-9-9-4-4-4-|
Ab|-9-9-9-9-9-9-9-9-9-9-9-9-9-9-9-9-9-9-9-9-9-9-9-9-9-9-9-9-9-4-4-4-|
Db|-9-9-9-9-9-9-9-9-9-9-9-9-9-9-9-9-9-9-9-9-9-9-9-9-9-9-9-9-9-4-4-4-|
 p.m...............................................................

Eb|-----------------------------------------------------------------|
Bb|-----------------------------------------------------------------|
Gb|-----------------------------------------------------------------|
Db|-5-5-5-5-5-5-5-5-5-5-5-5-5-5-5-5-0-0-0-0-0-0-0-0-0-0-0-0-0-0-0-0-|
Ab|-5-5-5-5-5-5-5-5-5-5-5-5-5-5-5-5-0-0-0-0-0-0-0-0-0-0-0-0-0-0-0-0-|
Db|-5-5-5-5-5-5-5-5-5-5-5-5-5-5-5-5-0-0-0-0-0-0-0-0-0-0-0-0-0-0-0-0-|
 p.m...............................................................

Eb|-----------------------------------------------------------------|
Bb|-----------------------------------------------------------------|
Gb|-----------------------------------------------------------------|
Db|-9-9-9-9-9-9-9-9-9-9-9-9-9-9-9-9-9-9-9-9-9-9-9-9-9-9-9-9-9-4-4-4-|
Ab|-9-9-9-9-9-9-9-9-9-9-9-9-9-9-9-9-9-9-9-9-9-9-9-9-9-9-9-9-9-4-4-4-|
Db|-9-9-9-9-9-9-9-9-9-9-9-9-9-9-9-9-9-9-9-9-9-9-9-9-9-9-9-9-9-4-4-4-|
 p.m...............................................................

Eb|-----------------------------------------------------------------|
Bb|-----------------------------------------------------------------|
Gb|-----------------------------------------------------------------|
Db|-5-5-5-5-5-5-5-5-5-5-5-5-5-5-5-5-0-0-0-0-0-0-0-0-0---------------|
Ab|-5-5-5-5-5-5-5-5-5-5-5-5-5-5-5-5-0-0-0-0-0-0-0-0-0---------------|
Db|-5-5-5-5-5-5-5-5-5-5-5-5-5-5-5-5-0-0-0-0-0-0-0-0-0---------------|
 p.m.................................................

Riff before Chorus #2:

Eb|----------------------|
Bb|----------------------|
Gb|-12-12-12-12-11-11-11-|
Db|----------------------|
Ab|-10-10-10-10-9--9--9--|
Db|----------------------|
  

  
**CHORUS 2**

Same as Chorus 1



**BRIDGE**

Eb|-----------------------------------------------------------------|
Bb|-----------------------------------------------------------------|
Gb|-----------------------------------------------------------------|
Db|-9---------------7---------------5-------------------------------| x3
Ab|-9---------------7---------------5-------------------------------|
Db|-9---------------7---------------5-------------------------------|

Eb|-----------------------------------------------------------------|
Bb|-----------------------------------------------------------------|
Gb|-----------------------------------------------------------------|
Db|-2---------------4---------------5-------------------------------| x2
Ab|-2---------------4---------------5-------------------------------|
Db|-2---------------4---------------5-------------------------------|



**CHORUS 3**

Same as Chorus 1...repeat



**OUTRO**

Same as Intro Guitar 2
Related for Chemical Reaction tab