Song name
# A B C D E F G H I J K L M N O P Q R S T U V W X Y Z

The Varsity - Buffalo Night Life tab

-------------------------------------------------------------------------------
			     BUFFALO NIGHT LIFE - The Varsity
-------------------------------------------------------------------------------
BAND WEBSITE:
http://www.thevarsityonline.com/index2.html


Tabbed by: emarjan
Email: emma@redefine.net

I think these are the correct tabs. Leave comments, and rate it to tell me what you think of it.
Im only 13, so dont post any hate comments if it is wrong. Enjoy!!

Tuning: EADGBe - Standard


INTRO
e|-------------------------------------------------------------------------------|
B|-------------------------------------------------------------------------------|
G|---5---------------------------------------------------------------------------|
D|---5----x8---------------------------------------------------------------------|
A|---7---------------------------------------------------------------------------|
E|-------------------------------------------------------------------------------|

VERSE
e|----------------------------------------------l---------------------------------|
B|----------------------------------------------l-----end on this-----------------|
G|----------------7-7---------------------------l---------------------------------|
D|---5-5---7-7---7-7---5-5-----x2--------------l------------5---------------------|
A|---5-5---7-7---5-5---5-5---------------------l------------5---------------------|
E |---3-3---5-5---------3-3---------------------l------------3--------------------|

e|------------------------------------------------------------------------|
B|------------------------------------------------------------------------|
G|-----------------7-7---------------------7-7---7-7-7---7-7-7---7-7------|
D|----5-5---7-7---7-7---5-5------x4-------7-7---7-7-7---7-7-7---7-7-------|
A|----5-5---7-7---5-5---5-5---------------5-5---5-5-5---5-5-5---5-5-------|
E|----3-3---5-5---------3-3-----------------------------------------------|

CHORUS (you can work out the strumming - its easy)
e|------------------------------------------------------------------------------|
B|------------------------------------------------------------------------------|
G|---7-----4--------------------------------------------------------------------|
D|---7--5--4--5-------x2--------------------------------------------------------|
A|---5--5--2--5-----------------------------------------------------------------|
E|------3-----3-----------------------------------------------------------------|

VERSE
e|------------------------------------------------------------------------|
B|------------------------------------------------------------------------|
G|-----------------7-7---------------------7-7---7-7-7---7-7-7---7-7------|
D|----5-5---7-7---7-7---5-5------x4-------7-7---7-7-7---7-7-7---7-7-------|
A|----5-5---7-7---5-5---5-5---------------5-5---5-5-5---5-5-5---5-5-------|
E|----3-3---5-5---------3-3-----------------------------------------------|

 THEN PLAY CHORUS x1

BRIDGE (work out the strumming)
e|----------------------------------------------------------------------------|
B|----------------------------------------------------------------------------|
G|---7------------------------------------------------------------------------|
D|---7------------------------------------------------------------------------|
A|---5------------------------------------------------------------------------|
E|----------------------------------------------------------------------------|

THEN PLAY CHORUS (until they stop)

OUTRO
e|-----------------------------------------------------------------------------|
B|------10--7------7--8--7-----------------------------------------------------|
G|---7----------7-----------9--7--6------x2------------------------------------|
D|-----------------------------------------------------------------------------|
A|-----------------------------------------------------------------------------|
E|-----------------------------------------------------------------------------|

e|---------------------------------------------------------------------------|
B|------10--7------7--8--7---------8--7--------------------------------------|
G|---7----------7-----------9--7---------9--7--------------------------------|
D|---------------------------------------------------------------------------|
A|---------------------------------------------------------------------------|
E|---------------------------------------------------------------------------|

WOOHOO!! that took quite a while -  hope you like it!
emma marjan
===============================================================================
Tap to rate this tab
 
# A B C D E F G H I J K L M N O P Q R S T U V W X Y Z