Song name
# A B C D E F G H I J K L M N O P Q R S T U V W X Y Z

The Vasco Era - Oh Sam tab

Song: Oh Sam 
Artist:The Vasco Era 

Riff 1 - Verse 

Clean
e|----------------------------------||     |----------------|
B|----------------------------------||     |----------------|
G|--------4-4-4------/6-----2-2-2---|| x12 |--6-/14-14-14---| (Do this on the
D|---2----4-4-4------/6-----2-2-2---||     |--6-/14-14-14---|  on the 12th
A|---2----2-2-2------/4-----0-0-0---||     |--4-/12-12-12---|  just before
E|---0------------------------------||     |----------------|   chorus)


Riff 2 - Chorus 

Distorted = Repeat x2 
e|----------------------------------||    |------------------------------|
B|----------------------------------||    |------------------------------|
G|--------4-4-4------/6-----2-2-2---|| X2 |--66666666-/14-14-14-14-14-14-|
D|---2----4-4-4------/6-----2-2-2---||    |--66666666-/14-14-14-14-14-14-|
A|---2----2-2-2------/4-----0-0-0---||    |--44444444-/12-12-12-12-12-12-|
E|---0------------------------------||    |------------------------------|


Riff 1 - Verse 

Clean
e|----------------------------------||     |----------------|
B|----------------------------------||     |----------------|
G|--------4-4-4------/6-----2-2-2---|| x12 |--6-/14-14-14---| (Do this on the
D|---2----4-4-4------/6-----2-2-2---||     |--6-/14-14-14---|  on the 12th
A|---2----2-2-2------/4-----0-0-0---||     |--4-/12-12-12---|  just before
E|---0------------------------------||     |----------------|   chorus)


Riff 2 - Chorus 

Distorted = Repeat x2 
e|----------------------------------||    |------------------------------|
B|----------------------------------||    |------------------------------|
G|--------4-4-4------/6-----2-2-2---|| X2 |--66666666-/14-14-14-14-14-14-|
D|---2----4-4-4------/6-----2-2-2---||    |--66666666-/14-14-14-14-14-14-|
A|---2----2-2-2------/4-----0-0-0---||    |--44444444-/12-12-12-12-12-12-|
E|---0------------------------------||    |------------------------------|


Solo/Break - Not entirely sure bout this bit, but anyway 

Distorted 
e|----------------||               e|---------------------||
B|----------------||               B|---------------------||
G|----------------|| xAlot...then  G|---------------------||
D|---5~-5~-5~-5~--||               D|----7~-7~-7~-7~------||
A|---0--0--0--0---||               A|----0--0--0--0-------||
E|----------------||               E|---------------------||


Riff 3 - When he sings "Oh Sam"
Distorted 
e|---------------||   |--------------------------||
B|---------------||   |--------------------------||
G|---------2-2-2-||x2 |--4-4-4-4---/6-6---2-2-2--|| (Repeat) 
D|---2-----2-2-2-||   |--4-4-4-4---/6-6---2-2-2--||
A|---2-----0-0-0-||   |--2-2-2-2---/4-4---0-0-0--||
E|---0-----------||   |--------------------------||


Thanks!

http://www.thevascoera.com/
Tap to rate this tab
# A B C D E F G H I J K L M N O P Q R S T U V W X Y Z