Song name
# A B C D E F G H I J K L M N O P Q R S T U V W X Y Z

The Vasco Era - When It First Showed Up tab

-------------------------------------------------------------------------------
			     When It First Showed Up - The Vasco Era
-------------------------------------------------------------------------------
Tabbed by: Justin
Email: pearson.justin@gmail.com
This is my first tab. I picked by ear, i reckon its pretty good. Play along with the song for strum pattern.
Corrections and feedback encouraged.
Cheers

Tuning: EADGBE

Intro: Sing her a love song....
       G (open chord, strum bottom 3 strings only)

Verses:
       E      G      A       B

e|------------3------5-------7-----------------------------------------------|
B|------------3------5-------7-----------------------------------------------|
G|-----2------4------6-------8-----------------------------------------------|
D|-----2------5------7-------9-----------------------------------------------|
A|-----1------5------7-------9-----------------------------------------------|
E|------------3------5-------7-----------------------------------------------|

e|-----1\3-0------------------------------13~13~vib-15-13-13-13-13-----------|
B|------------3-0--------------------------------------15^15^15^15^----------|
G|------------------3-2-0----------------------------------------------------|
D|--------------------------2-1----------------------------------------------|
A|--------------------------------2------------------------------------------|
E|---------------------------------------------------------------------------|

Repeat verse E, G, A, B   then....

e|-----1\3-0------------------------------15~15~vib-17-15-17^-17^-17^-17^----|
B|------------3-0------------------------------------------------------------|
G|------------------3-2-0----------------------------------------------------|
D|--------------------------2-1----------------------------------------------|
A|--------------------------------2------------------------------------------|
E|---------------------------------------------------------------------------|

Drop it like a stone.....

      A  (x4)     G (strum bottom 3 strings only)

e|----5-----------3----------------------------------------------------------|
B|----5-----------3----------------------------------------------------------|
G|----6-----------4----------------------------------------------------------|
D|----7-----------5----------------------------------------------------------|
A|----7-----------5----------------------------------------------------------|
E|----5-----------3----------------------------------------------------------|

Repeat E,G,A,B   But with a different strum pattern.

Go find somebody else.... (listen for timing here)

      E

e|----7----------------------------------------------------------------------|
B|----7----------------------------------------------------------------------|
G|----9----------------14^---------------------------------------------------|
D|----9----------------14^---------------------------------------------------|
A|----7----------------12----------------------------------------------------|
E|----7----------------12----------------------------------------------------|


Ending: Turn distortion off to a clean sound.

It was always gonna be the hardest part....etc.

      C      F       Then end on... E

e|---------------------------------------------------------------------------|
B|----1------1---------------------------------------------------------------|
G|-----------2----------------------2----------------------------------------|
D|----2------3----------------------2----------------------------------------|
A|----3------3----------------------1----------------------------------------|
E|---------------------------------------------------------------------------|

Enjoy.... Please email me and let me know what you think.
Cheers
Justin




| /  slide up
| \  slide down
| h  hammer-on
| p  pull-off
| ~  vibrato
| +  harmonic
| x  Mute note
===========================================================================
Tap to rate this tab
 
# A B C D E F G H I J K L M N O P Q R S T U V W X Y Z