Song name
# A B C D E F G H I J K L M N O P Q R S T U V W X Y Z

The Veils - Vicious Traditions tab

"Vicious Traditions" by The Veils
heard in Mr. Brooks

Tabbed by: Kellexx (mister_cyrus@hotmail.com)
Date: Mar. 14/09

Part 1:

E--------------------------------|
B--------------------------------|
G--------------------------------|
D--------------------------------|
A-----5----5--5----5----5--5-----|
E--6--6--6-6--5--5-5--5-5--5h6---|

Part 2:

E--13--------13--------13----13-------13-------13------|
B-----11p10-----11p10-----10----10-------10-------10---|
G----------------------------------10-------10---------|
D------------------------------------------------------|
A------------------------------------------------------|
E------------------------------------------------------|
Tap to rate this tab
 
# A B C D E F G H I J K L M N O P Q R S T U V W X Y Z