The Veils - Calliope chords

Highlighted       Show chord diagrams
----------------------------------------------------------------------------
			     Calliope! - The Veils
----------------------------------------------------------------------------
Tabbed by: Travis Macdonald
Email: Travis_Macdonald@hotmail.com

Tuning: Standard

Intro:

e|-------------------------------------------------------------------------|
B|-13-13-13-13-13/10-10-10-10-10-10/8-8-8-8-8/8----8--8--------------------|
G|-14-14-14-14-14/12-12-12-12-12-12/9-9-9-9-9/10--10-10--------------------|
D|-14-14-14-14-14/12-12-12-12-12-12/9-9-9-9-9/10--10-10--------------------|
A|-12-12-12-12-12/10-10-10-10-10-10/7-7-7-7-7/8----8--8--------------------|
E|-------------------------------------------------------------------------|

Am G Em F x2

Verse:

Am                G             Em         F
I woke this morning deep in the earth Laying bare with the granite and the moths 
Am                G                 Em                        F
Up I clambered and I was met by the sun It was then I saw you there, down 
on the street my love

Chorus:

C          G               Em              F
You've come such a long way With no one to comfort you Or to tell you you're needed 
C         G                  Em                     F
You and I come from the same place But if I were to call for you What's there left to believe in? 

C G Em F x2

Verse:

Am             G                      Em                      F
So I signaled up to the high and crumbling moon We've made it then, my love
Am             G                          Em                           F
Closed both my eyes and crawled under the sink And as I dreamt I swear i felt you in my arms again

Chorus:

C          G               Em              F
You've come such a long way With no one to comfort you Or to tell you you're needed 
C         G                  Em                     F
You and I come from the same place But if I were to call for you What's there left to believe in? 

C G Em F x2 
Whats there left to believe in?
Whats there left to believe in?

Bridge:

Am      G                   Em                F              
No way, you're looking down Took my heart and ripped my crown
C                     G                       Em                         
And i'm fallin' for ya, and i'm fallin' for ya, And i'm falling for you, 
F
ah, That's enough to believe in. 

Chorus:

C          G               Em              F
You've come such a long way With no one to comfort you Or to tell you you're needed 
C         G                  Em                     F
You and I come from the same place But if I were to call for you What's there left to believe in? 

C G Em F x3 
Whats there left to believe in?
Whats there left to believe in?

-Thats it. Peace.
Tap to rate this tab
 
# A B C D E F G H I J K L M N O P Q R S T U V W X Y Z