Song name
# A B C D E F G H I J K L M N O P Q R S T U V W X Y Z

The Veils - Us Godless Teenagers chords

Highlighted       Show chord diagrams
Intro
G 3x

G               Em (Em7)
Nowhere to call home
G                Em (Em7)
Talking on our phones
G                Em (Em7)
Always arriving stoned

 
C             G
Us Godless teenagers
C             G
Us Godless teenagers

 
G                  Em (Em7)
We're off to fly a kite
G                        Em (Em7)
And stay up 'til it gets light
G                            Em (Em7)
All good for nothing but not quite

 
C              G
Us Godless teenagers
C              G
Us Godless teenagers


G                        Em (Em7)
We've nowhere left to disappear
G                                 Em (Em7)
There's nowhere left to go around here
G                          Em (Em7)
And so we hold each other dear


C              G
Us Godless teenagers
C              G
Us Godless teenagers



Instrumental Ending:
G#m Gm Fm D G G 

E------------------|------------------|--------------|--------------|
B---11--11--11--11-|---10--10--10--10-|---8--8--8--8-|---7--7--7--7-|
G-12--12--12--12---|-11--11--11--11---|-9--9--9--9---|-7--7--7--7---|
D------------------|------------------|--------------|--------------|
A------------------|------------------|--------------|--------------|
E------------------|------------------|--------------|--------------|

E--------------|---------------|
B--------------|---------------|
G--------------|---------------|
D---0--0--0--0-|---0--0--0--2-0|
A--------------|---------------|
E-3--3--3--3---|-3--3--3--3---3|

I usually only make chords and I know these tabs are not perfect but
they will help you understand what I meant with the chords in the
instrumental ending. Just try it with the song and you'll see it fits.

Enjoy :)
Tap to rate this tab
# A B C D E F G H I J K L M N O P Q R S T U V W X Y Z