Guitaretab - guitar tabs
Song name
# A B C D E F G H I J K L M N O P Q R S T U V W X Y Z

The Veils - Lavinia tab

**************************************************************************
                           Lavinia - The Veils
**************************************************************************

Tabbed by: Paul
Website: http://www.theveils.net
Email: http://forum.theveils.net

Tuning: EADGBe

Capo 1st fret

====================

Em	0 2 2 0 0 0
Am	x 0 2 2 1 0
F#m	2 4 4 2 2 2
G	3 5 5 4 3 3

====================


Play this pattern rather than Em Am as indicated.

|-0-----3-----2-----0-----0-----2-----3-|
|-0-----0-----0-----0-----1-----1-----1-|
|-0-----0-----0-----0-----2-----2-----2-|
|-2-----2-----2-----2-----2-----2-----2-|
|-2-----2-----2-----2-----0-----0-----0-|
|-0-----0-----0-----0-------------------|

String Riff:
e|-------------------------6--8--|
B|--9---9-9-8--------------------|
G|-------------8--6------6-------|
D|---------------------8---------|
A|-------------------------------|
E|-------------------------------|

Riff 1:
e|-----------------------------------------------|
B|-----9-----------11-----------13-----------16--|
G|-10----10---12-------12---13-----13----15------|
D|-----------------------------------------------|
A|-----------------------------------------------|
E|-----------------------------------------------|
[ Tab from: http://www.guitaretab.com/t/the-veils/59471.html ]
Then back to the main bit.

Em Am (x 2)

Em			     Am
See my love is asleep on the floor

in a pose that's familiar
Em				 Am
See my sun will just send you to war

if the battle don't kill you


Em		Am
But I've a change in mind
Em	   Am
Calling all the time


Em				  Am
That I don't want to live in your side

though the rose is vermillion
Em			 Am
And I find it so hard to survive

without when within you


Em	Am
 My sweet Lavinia
Em	Am
 My sweet Lavinia


Em				Am
All the years buried under the floors

And the wounds in the parlour
Em				Am
Would have come up to greet us before

if it weren't for my heart because


Em	  Am	
I've her name in mine
Em	  Am
And it's calling all the time


Em	   Am
For my sweet Lavinia
Em	Am
 My sweet Lavinia
Em	Am
 My sweet Lavinia
Em	Am
 My sweet Lavinia

Em Am (x 16)

Em F#m G F#m 
(Start playing Riff 1 and repeat continuously)

Em F#m G F#m       Em F#m G F#m
Lucia my love, in the darkness shown
Em F#m G F#m       Em F#m G F#m
Lucia my love, and you're not mine
Em F#m G F#m       Em F#m G F#m
Lucia my love, in the silence so long
Em F#m G F#m       Em F#m G F#m
Lucia my love, no promise no more,
Em F#m G F#m       Em F#m G F#m
Lucia, ?
Em F#m G F#m       Em F#m G F#m
My Lucia my love...
Related for Lavinia tab
Lavinia chords by The Veils